Oops, an error
Loading. Please wait.

Talking Bird Bass Tab

version 3
version 3

Whole song

638 views 1 this week
no commentswrite comment
1 2 3 4 5
2 more votes to show rating
add to favorites
launch autoscroll
font size
0
reset
guitar tuner
Autoscroll
slow
fast
+/-
esc
set tempo
stop
Help us to improve Ultimate-Guitar.com Take our survey!
×
Author
Difficulty
novice
Title: Talking Bird
Artist: Death Cab for Cutie
Album: Narrow Stairs

Verse
G--------------------------------------|
D-5-5-5-5-9-9-9-9-10-10-10-10-10-10-10-|
A-3-3-3-3-7-7-7-7--8--8--8--8--8--8--8-|
E--------------------------------------|

G---------------------------------------------|
D-5-5-5-5-12-12-12-12-10-10-10-10-10-10-10-10-|
A-3-3-3-3-10-10-10-10--8--8--8--8--8--8--8--8-|
E---------------------------------------------|

Interlude
G------------------------------|
D-7~~~~~~~----12~~~~~~~--------|
A-5~~~~~~~----10~~~~~~~--------|
E------------------------------|

Ending
G-----------------------------------------|
D-7-7-7-7-7-7-7-7-12-12-12-12-12-12-12-12-|
A-5-5-5-5-5-5-5-5-10-10-10-10-10-10-10-10-|
E-----------------------------------------|

G-------------------------------------------------|
D-14-14-14-14-14-14-14-14-12-12-12-12-12-12-12-12-|
A-12-12-12-12-12-12-12-12-10-10-10-10-10-10-10-10-|
E-------------------------------------------------|

G-----------------------------------------|
D-10-10-10-10-10-10-10-10-7~~~~~~~~~~-----|
A--8--8--8--8--8--8--8--8-5~~~~~~~~~~-----|  (no bass last two bars)
E-----------------------------------------|
Suggest correction
Give kudos to tab author, rate the tab!
1 2 3 4 5
comments
print report bad tab
guest
You may want to rate the tab now too:
select rating
Wanna post a correction for this tab? Suggest correction