Oops, an error
Loading. Please wait.

The Ice Is Getting Thinner Bass Tab

version 1
version 1

Whole song

Interactive

1,079 views 3 this week
no commentswrite comment
1 2 3 4 5
please rate
add to favorites
launch autoscroll
font size
0
reset
guitar tuner
Autoscroll
slow
fast
+/-
esc
set tempo
stop
Help us to improve Ultimate-Guitar.com Take our survey!
×
Author
Difficulty
novice
-------------------------------------------------------------------------------
	       THE ICE IS GETTING THINNER - Death Cab For Cutie
-------------------------------------------------------------------------------

From the album Narrow Stairs (2008)

Standard Tuning EADG

Just listen to the song to get the timing right.
All notes are held

Intro:
G|-------------------------|-------0-----------------|
D|-------4-----------------|-------------------------|
A|-0-----------------3-----|-0-----------------3-----|
E|-------------1-----------|-------------1-----------|

Verse:
G|-------------------------|-------0-----------------|
D|-------4-----------------|-------------------0-----|
A|-0-----------------3-----|-0-----------------------|
E|-------------1-----------|-------------1-----------|

G|-------------------------|-------0-----------------|
D|-------4-----------------|-------------------------|
A|-0-----------------3-----|-0-----------------3-----|
E|-------------1-----------|-------------1-----------| x2

Bridge:
G|-------------------------|-------0-----------------|-0-----------------|
D|-------------------------|-0-----------------------|-------------------|
A|-------3-----------4-----|-------------3-----------|-------------------|
E|-1-----------1-----------|-------------------1-----|-------------------|

Verse:
G|-------------------------|-------0-----------------|
D|-------4-----------------|-------------------0-----|
A|-0-----------------3-----|-0-----------------------|
E|-------------1-----------|-------------1-----------|

G|-------------------------|-------0-----------------|
D|-------4-----------------|-------------------------|
A|-0-----------------3-----|-0-----------------3-----|
E|-------------1-----------|-------------1-----------|

Outro:
G|-------0-----------------|
D|-------------------------|
A|-0-----------------3-----|
E|-------------1-----------|

===============================================================================
Suggest correction
Give kudos to tab author, rate the tab!
1 2 3 4 5
comments
print report bad tab
guest
You may want to rate the tab now too:
select rating
Wanna post a correction for this tab? Suggest correction