Oops, an error
Loading. Please wait.

The Sound Of Settling Tab

version 3
version 3

Whole song

Interactive

27,880 views 18 this week
2 commentsread comments
1 2 3 4 5
x 5
add to favorites
launch autoscroll
font size
0
reset
how to read this tab
guitar tuner
Autoscroll
slow
fast
+/-
esc
set tempo
stop
Help us to improve Ultimate-Guitar.com Take our survey!
×
Author
Capo
2nd fret
Tuning EADGBe (Standard)
Capo 2

[Intro]
(Guitar 1)
(Riff 1)
e|-------------------------------------------------------------------|
B|-------------------------------------------------------------------|
G|--------------------1----------------------------------------------| (2x)
D|--2-----2-----4----------------------------------------------------|
A|--4----------------------4-----4-------/7----7---------------------|
E|-----0-----0-----0-----0—2---2---2---2/5-------5-------------------|

(then guitar 2 joins in)(guitar 1 plays Riff 1 two more times)

(Riff 1b)
e|-------------------------------------------------------------------|
B|-------------------------------------------------------------------|
G|--6----6--/-8---9----6----6------2---------------------------------|
D|---------------------------------2---------------------------------|
A|--4----4--/-6---7----4----4------0---------------------------------|
E|-------------------------------------------------------------------|

[Chorus]
e|------------------------------------------------------------------------|
B|------------------------------------------------------------------------|
G|13--13--13--13--1311--11--11--11—-118--8--8--8---8/9--9--9--9/----------|
D|------------------------------------------------------------------------|
A|11--11--11--11--119----9---9---9---96--6--6--6---6/7--7--7--7/----------|
E|------------------------------------------------------------------------|

e|------------------------------------------------------------------------|
B|------------------------------------------------------------------------|
G|13--13--13--13--1311--11--11--11—-118--8--8--8---8/9--9--9—-9-----------|
D|------------------------------------------------------------------------|
A|11--11--11--11--119----9---9---9---96--6--6--6---6/7--7--7--7-----------|
E|------------------------------------------------------------------------|

e|----------------------------------------------------------------|
B|----------------------------------------------------------------|
G|9--9--9--9--98--8--8--8---84--4---4---4---2---2---2--2--2-------|(2x)
D|--------------------------------------------2---2---2--2--2-----|
A|7--7--7--7--76--6--6--6---62--2---2---2---0---0---0--0--0-------|
E|----------------------------------------------------------------|

(guitar 1)
e|--------------------------------------------------------------|
B|--------------------------------------------------------------|
G|9--9--9--9--9--9--9--9--9--9--9—-9--9--9--9--9--9--9--9-------|
D|--------------------------------------------------------------|
A|7--7--7--7--7--7--7--7--7--7--7—-7--7--7--7--7--7--7--7-------|
E|--------------------------------------------------------------|

e|--------------------------------------------------------------|
B|--------------------------------------------------------------|
G|9--9--9--9--9--9--9--9--9--9--9--9--9--9--8--8--8--8—-8-8-----|
D|---------------------------------------------9--9--9--9-9-----|
A|7--7--7--7--7--7--7--7--7--7--7--7--7--7--7--7--7--7--7-7-----|
E|--------------------------------------------------------------|

(guitar 2)
(Riff 3)
e|-----------------------------------------------------|
B|--5-----4----5--4---x-x-5---x-x-4-----5--5--4--7--4--|
G|--4-----4----4--4---x-x-4---x-x-4-----4--4--4--4--4--|
D|--6-----4----6--4---x-x-6---x-x-4-----6--6--4--4--4--|
A|-----------------------------------------------------|
E|-----------------------------------------------------|

e|----------------------------------------------------------|
B|-x-x-5---x-x-4--5--4---x-x-5---x-x-4---x-x-5--5--4--4--4--|
G|-x-x-4---x-x-4--6--4---x-x-4---x-x-4---x-x-4--4--4--4--4--|
D|-x-x-6---x-x-4--4--4---x-x-6---x-x-4---x-x-6--6--4--4--4--|
A|----------------------------------------------------------|
E|----------------------------------------------------------|

[Verse 2]
(Riff 1b)
e|-------------------------------------------------------------------|
B|-------------------------------------------------------------------|
G|--6----6--/-8---9----6----6------2---------------------------------|
D|---------------------------------2---------------------------------|
A|--4----4--/-6---7----4----4------0---------------------------------|
E|-------------------------------------------------------------------|

(Guitar 2) 
(joins in when guitar 1 plays riff 1b for the 2nd time)
e|------0--------------------------------------------------|
B|---0h2----6---0h2-0----2---2-----------------------------|
G|-------------------1--4----------------------------------|
D|-----------------------------4---2-----------------------|
A|---------------------------------------------------------|
E|---------------------------------------------------------|

e|-------------------------------------------------------------------|
B|--5----5---/7----9----5----5-------------5-------------------------|
G|--6----6---/8----9----6----6----6-----4-----4----------------------|
D|-------------------------------------------------------------------|
A|-------------------------------------------------------------------|
E|-------------------------------------------------------------------|

e|-------------------------------------------------------------------|
B|--5----5---/7----9----5----5--------7---5--------------------------|
G|--6----6---/8----9----6----6----6----------------------------------|
D|-------------------------------------------------------------------|
A|-------------------------------------------------------------------|
E|-------------------------------------------------------------------|


************************************

| /  Slide up
| x  Dead note
| h  Hammer-on

************************************
Suggest correction
comments
print report bad tab
2 comments total.
0 reply
Spencerpyles 10 Jun 02, 2010 02:59 PM

On the first riff, isn't that 1 supposed to be on the D string?

See, you have it like this:
|-------------------------------------------------------------------|
|-------------------------------------------------------------------|
|--------------------1----------------------------------------------| play 2x
|--2-----2-----4----------------------------------------------------|
|--4----------------------4-----4-------/7----7---------------------|
|-----0-----0-----0-----0—2---2---2---2/5-------5-------------------|

But i thought it went like this:
|-------------------------------------------------------------------|
|-------------------------------------------------------------------|
|-------------------------------------------------------------------| play 2x
|--2-----2-----4------1----------------------------------------------|
|--4----------------------4-----4-------/7----7---------------------|
|-----0-----0-----0-----0—2---2---2---2/5-------5-------------------|

Correct me if I'm wrong...

0 reply
Spencerpyles 10 Jun 02, 2010 03:01 PM

Wait... nevermind that last comment lol I see where i messed up.

guest
You may want to rate the tab now too:
select rating
Wanna post a correction for this tab? Suggest correction