Oops, an error
Loading. Please wait.

Tiny Vessels Tab

version 1
version 1

Solo

Interactive

4,804 views 1 this week
1 commentread comment
1 2 3 4 5
accurate
x 3
add to favorites
launch autoscroll
font size
0
reset
how to read this tab
guitar tuner
Autoscroll
slow
fast
+/-
esc
set tempo
stop
Help us to improve Ultimate-Guitar.com Take our survey!
×
Author
Difficulty
-------------------------------------------------------------------------------
                          Tiny Vessels - Death Cab For Cutie
-------------------------------------------------------------------------------
Tabbed by:Mike aka Mike the Great
Email: I'm not giving you my e-mail freak

Tuning:Standard

When you play both this parts together it sounds really sweet, but i wanted to know to 
both so i tabbed it out for you lazy asses......enjoy!

Guitar 1
e|---------------------------------------------------------------------------|
B|---------------------------------------------------------------------------|
G|---------------------------------------------------------------------------|
D|-------7---9---11---------7---9---11-------4--4-7-4---4--------------------|
A|---9-9---9---9---------9-9--9--9----------7--7------7----------------------|
E|---------------------------------------------------------------------------|

e|---------------------------------------------------------------------------|
B|---------------------------------------------------------------------------|
G|---------------------------------------------------------------------------|
D|-----4---4---4---4---------repeat this-------------------------------------|
A|---5---5---4---2-----------------------------------------------------------|
E|---------------------------------------------------------------------------|


Guitar 2
e|---------------------------------------------------------------------------|
B|---------------------------------------------------------------------------|
G|--------9-----9-----------6---6-------6----7---6-------6-------6------x2---|
D|----7-7-----7-------7-7-7---7---7-7-7---7----7---7-7-7---7-7-7---7---------|
A|---------------------------------------------------------------------------|
E|---------------------------------------------------------------------------|
Suggest correction
Give kudos to tab author, rate the tab!
1 2 3 4 5
comments
print report bad tab
1 comment total.
0 reply
hendrixfreak93 835 wrote on July 12 2008, 11:41 am

Nice job. Just a minor correction though.
This:
e|---------------------------------------------------------------------------|
B|---------------------------------------------------------------------------|
G|--------9-----9-----------6---6-------6----7---6-------6-------6------x2---|
D|----7-7-----7-------7-7-7---7---7-7-7---7----7---7-7-7---7-7-7---7---------|
A|---------------------------------------------------------------------------|
E|---------------------------------------------------------------------------|

Could also be this:
e|---------------------------------------------------------------------------|
B|-----------10---------------------------------------------------------------|
G|--------9------9--------6---6-------6----7---6-------6-------6------x2---|
D|----7-7---7--7------7-7---7---7-7-7---7----7---7-7-7---7-7-7---7---------|
A|----9-9-------------9-9---------9-9----------------------------------------------|
E|---------------------------------------------------------------------------|

That's how I play at, and it harmonizes very well with guitar 1's part.

guest
You may want to rate the tab now too:
select rating
Wanna post a correction for this tab? Suggest correction