Oops, an error
Loading. Please wait.

Tiny Vessels Tab

version 1
version 1

Interactive

14,785 views 12 this week
1 commentread comment
1 2 3 4 5
accurate
x 4
add to favorites
launch autoscroll
font size
0
reset
how to read this tab
guitar tuner
Tab Pro tools
  • play this tab
  • loop segment
  • change instrument
  • show fretboard
  • metronome
×
Best way to learn
"Tiny Vessels"
Autoscroll
slow
fast
+/-
esc
set tempo
stop
Contributor
Capo
2nd fret
Song: Tiny Vessels
Artist: Death Cab For Cutie
Album: Transatlanticism

Tabbed By: Revlin
5/30/06

Update, 1-23-14: I went back and tweaked Guitar 1's chorus to sound more accurate.


Fantastic Death Cab song. Enjoy!


Capo 2nd fret


Intro & 1st and 2nd Verse
e|----------------------------------------------------------------------------------|
B|----------------0---------------------0-------------------------------------------|
G|------0----2----------------0----2---------------------0--------------------------|
D|--2-2---2----2-----2----2-2---2----2-----2----0-2-0-2-----2-0-2----2---2---2---2--|
A|-----------------------------------------------------------------3---3---2---0----|
E|----------------------------------------------------------------------------------|


Chorus

Guitar 1
e|--33333333-33333333--------------------------------------|
B|--55555555-55555555--------------------------------------|
G|--55555555-33333333---9--9--9--9--9--9--9--9~---------4~~|
D|----------------------9--9--9--9--9--9--9--9~--44-55--x~~|
A|----------------------7--7--7--7--7--7--7--7~--xx-xx--2~~|
E|----------------------0--0--0--0--0--0--0--0~--22-33-----|

Guitar 2
e|----------------------------------------|
B|----------------------------------------|
G|----------------------------------------|
D|----------------------------------------|
A|--33333333-44444444-----------------2~--|
E|---------------------00000000-02233-----|


3rd Verse
e|----------------------------------------------------------------------------------|
B|----------------0~--------------------0~------------------------------------------|
G|------0----2---------------0----2--------------------0----------------------------|
D|--2-2---2----2---------2-2---2----2---------0-2-0-2-----2-0-2----2---2---2---2----|
A|---------------------------------------------------------------3---3---2---0------|
E|----------------------------------------------------------------------------------|


Outro
e|--0-3~----0-------0-------0-----|
B|--------0---1~--0---0~--1---0~--|
G|--------------------------------|
D|--------------------------------|
A|--------------------------------|
E|--------------------------------|


End on:
e|--0~--|
B|--2~--|
G|--1~--|
D|------|
A|------|
E|------|


Comments or questions, e-mail me at SoftAsylum@gmail.com
comments
print report bad tab
1 comment total.
0 reply
death_cab_love wrote on June 25 2007, 09:28 pm

wow. this is very good.

I want to post or [tab]
guest
You may want to rate the tab now too:
select rating
Please do not post tabs as comments. Select "correction" instead!