Oops, an error
Loading. Please wait.

Tiny Vessels Tab

version 2
version 2

Interactive

30,282 views 42 this week
2 commentsread comments
1 2 3 4 5
accurate
x 7
add to favorites
launch autoscroll
font size
0
reset
how to read this tab
guitar tuner
Autoscroll
slow
fast
+/-
esc
set tempo
stop
Help us to improve Ultimate-Guitar.com Take our survey!
×
Author
Difficulty
intermediate
Song - Tiny Vessels
Artist - Death Cab for Cutie
Album - Transatlanticism
Capo - 2nd Fret

I've seen a lot of workable tabs for this song, but my fingers don't stretch very well 
I redid some of the fingering. Tell me what you think.


Intro and Verse 1:
e|-------------------------------------------------|
B|-------------------------------------------------|
G|-------0-----2-----4-----------0-----2-----4-----|
D|-2--2-----2-----2-----2--2--2-----2-----2-----2--|
A|-------------------------------------------------|
E|-------------------------------------------------|

e|-------------------------------------------------|
B|-------------------------------------------------| Play intro/Verse 1 6X
G|-------------0-----------------------------------|
D|-0--2--0--2-----2--0--2-----2-----2-----2-----2--|
A|-------------------------3-----3-----2-----0-----|
E|-------------------------------------------------|

Chorus
e|----------------------------|
B|----0--0--0--0--0--0--0--0--|
G|----0--0--0--0--0--0--0--0--|
D|----2--2--2--2--2--2--2--2--|
A|----3--3--3--3--3--3--3--3--|
E|----------------------------|

e|----------------------------|
B|----0--0--0--0--0--0--0--0--|
G|----0--0--0--0--0--0--0--0--|
D|----2--2--2--2--2--2--2--2--|
A|----4--4--4--4--4--4--4--4--|
E|----------------------------|

e|-------------------------------------------------|
B|-------------------------------------------------|
G|----0--0--0--0--0--0--0--0-----------------------| Play chorus
D|----2--2--2--2--2--2--2--2-----------------------|     4X
A|----2--2--2--2--2--2--2--2-----------------2--2--|
E|----0--0--0--0--0--0--0--0--0--2--2--3--3--------|

(That finger-picking is optional. You can continue playing the chord there instead of that.)

e|-------------------------------|
B|----3--3--3--3--3--3--3--3\\2--|
G|----0--0--0--0--0--0--0--0--0--|
D|----4--4--4--4--4--4--4--4\\3--|
A|----5--5--5--5--5--5--5--5\\4--|
E|-------------------------------|

Verse 2
e|-------------------------------------------------|
B|-------------------------------------------------|
G|-------0-----2-----4-----------0-----2-----4-----|
D|-2--2-----2-----2-----2--2--2-----2-----2-----2--|
A|-------------------------------------------------|
E|-------------------------------------------------|

e|-------------------------------------------------|
B|-------------------------------------------------|
G|-------------0-----------------------------------| Play Verse 2 5X
D|-0--2--0--2-----2--0--2-----2-----2-----2-----2--|
A|-------------------------3-----3-----2-----0-----|
E|-------------------------------------------------|

Ending
e|--------3--3--|
B|-----5--------|(note played on B string can be played as open on e string)
G|--------------|
D|-(2)----------|
A|--------------|
E|--------------|

e|--------------|
B|--------3--3--|
G|-----4--------|
D|-(0)----------|
A|--------------|
E|--------------|

e|----------|
B|----3--0--|
G|-0--------|
D|----------|
A|----------|
E|----------|

e|----------------------------------------------------------|
B|----3--0--------------------------------------------------|
G|-2--------|  Play ending----------------------------------| 4X
D|----------------------------------------------------------|
A|----------|<--------------------------------------------\-|
E|----------|                                            ---|
                                                          |
End on this instead of the last three notes in the ending |
e|--X--|
B|--1--|
G|--0--|
D|--2--|
A|--X--|
E|--X--|

| /  slide up
| \  slide down
| h  hammer-on
| p  pull-off
| ~  vibrato
| +  harmonic
| x  Mute note

Questions? Comments? Corrections? Good jokes? Email me at Jayhawkfan2700@yahoo.com
Suggest correction
comments
print report bad tab
2 comments total.
0 reply
gmikey222 173 wrote on September 15 2006, 08:44 am

Looks pretty good.
its the sam basic notes as the other ones, but its a lil easier on the hands.

0 reply
Chunkielunchbox 141 wrote on March 6 2007, 12:59 am

it sounds ok, but i like the others better

guest
You may want to rate the tab now too:
select rating
Please do not post tabs as comments. Select "correction" instead!