Oops, an error
Loading. Please wait.

Title And Registration Bass Tab

version 1
version 1

Whole song

Interactive

9,171 views 24 this week
no commentswrite comment
1 2 3 4 5
x 4
add to favorites
launch autoscroll
font size
0
reset
guitar tuner
Autoscroll
slow
fast
+/-
esc
set tempo
stop
Help us to improve Ultimate-Guitar.com Take our survey!
×
Author
Difficulty
-------------------------------------------------------------------------------
			     SONG NAME - Band Name
-------------------------------------------------------------------------------

Tabbed By : Nightmare_xxx
e-mail: ali.johnstone@mac.com

Tuning: Standard


It's all pretty much correct, but a bit jumbled. You'll work it out :)

Chorus (0:47)
|-----------------------------------------------------|
|-----------------------------------------------------|
|0-0-0-0-0-0-0-0-2-2-2-2-2-2-2-2-5-5-5-5-5-5-5-5------|   3x
|-----------------------------------------------------|

|------------------------------------|
|------------------------------------|
|0-0-0-0-0-0-0-0-2-2-2-2-2-2-2-2-----|
|------------------------------------|

Verse (1:10)
|--------------------------------------------------------------------|
|--------------------------------------------------------------------|
|5---5---5-5-4--------------------0---0---0-2-4-4-------------4-0----|
|--------------0----2-------0-2-0-------------------0---0---0--------|

|-----------------------------------------------------------------------|
|-----------------------------------------------------------------------|
|5---5---5-5-4---------------------5---5---5-5-4------------------------|
|--------------0----2-----------------------------0----2-------0-2-0----|

|----------------------------------------------------------------------|
|----------------------------------------------------------------------|
|0---0---0-2-4-4--------------4-0--5---5---5-5-4-----------------------|
|-------------------0---0---0---------------------0----2---------------|

|-----------------------------------------------------------------------|
|-----------------------------------------------------------------------|
|5---5---5-5-4---------------------0---0---0-2-4-4--—-----------4-0-----|
|--------------0----2-------0-2-0----------------------0---0---0--------|

(1:43)
|-----------------------------------------------------------------------|
|-----------------------------------------------------------------------|
|5---5---5-4-2-0--5---5---5-5-4---------------------—-------------------|
|-------------------------------0----2--------0-2-0--0---0---0-2-4-4----|

|----------------------------------------------------------------------|
|----------------------------------------------------------------------|
|------------4-0--5---5---5-5-4---------------------5---5---5-5-4------|
|--0---0---0---------------------0--2------------------------------0---|

|----------------------------------------------------------------------|
|----------------------------------------------------------------------|
|----------------------------------------------4-0--5---5---5-4-2-0----|
|--2-------0-2-0--0---0---0-2-4-4----0---0---0-------------------------|

|-------------------|
|-------------------|
|5---5---5-4-2-0----|
|-------------------|

Chorus (2:10)
|-------------------------------------------------------|
|-------------------------------------------------------|
|0-0-0-0-0-0-0-0--2-2-2-2-2-2-2-2--5-5-5-5-5-5-5-5------|   3x
|-------------------------------------------------------|

|-------------------------------------|
|-------------------------------------|
|0-0-0-0-0-0-0-0-2-2-2-2-2-2-2-2------|   1x
|-------------------------------------|

Interlude (2:33)
|-----------------------------------------------------|
|-----------------------------------------------------|
|----4-------4---5-5---5-5-5-----2-2-2-2-2-2-2-2------|   2x
|2-------2--------------------------------------------|

|---------------------------------|
|---------------------------------|
|----4-------4----5---------------|
|2-------2------------------------|

Chorus (2:50)
|-----------------------------------------------------|
|-----------------------------------------------------|
|0-0-0-0-0-0-0-0-2-2-2-2-2-2-2-2-5-5-5-5-5-5-5-5------|   x4
|-----------------------------------------------------|

Outro (3:14)
|--------------------------------------------------------------------|
|--------------------------------------------------------7---7-7-7---|
|0-0-0-0-0-0-0-0-2-2-2-2-2-2-2-2-5-5-5-5-5-5-5-5-5-5-5---------------|
|--------------------------------------------------------------------|

|---------------------------------------------------------------------|
|--------------------------------------------------------7---7-7-7----|
|5-5-5-5-5-5-5-5-5-5-5-5-7---7-7-5-5-5-5-5-5-5-5-5-5-5----------------|
|---------------------------------------------------------------------|
|---------------------------------------------------------------------|
|-----------------------4---4-4-4-------------------------------------|
|5-5-5-5-5-5-5-5-5-5-5-----------5------------------------------------|
|---------------------------------------------------------------------|

| /  slide up
| \  slide down
| h  hammer-on
| p  pull-off
| ~  vibrato
| +  harmonic
| x  Mute note
===============================================================================
Suggest correction
comments
print report bad tab
guest
You may want to rate the tab now too:
select rating
Wanna post a correction for this tab? Suggest correction