Oops, an error
Loading. Please wait.

Title And Registration Tab

version 1
version 1
89,053 views 21 this week
5 commentsread comments
1 2 3 4 5
x 16
add to favorites
launch autoscroll
font size
0
reset
how to read this tab
guitar tuner
Autoscroll
slow
fast
+/-
esc
set tempo
stop
Author
Capo
2nd fret
Capo 2

[Verse]
e|-----------------------------------------------------|
B|--------------------------------------0--3-0-1-0-----|
G|--------------------------------------0----------2-0-|
D|--5-5--7-9-7-5------5-5--7-9-7-5------2--------------|
A|-7-7-7---------3-3/5-5-5----------3-3-3--------------|
E|-----------------------------------------------------|

e|----------------------------------------------|
B|--------------------------------------0-------|
G|--------------------------------------0-------|
D|--5-5--7-9-7-5------5-5--7-9-7-5------2-------|
A|-7-7-7---------3-3/5-5-5----------3-3-3-------|
E|----------------------------------------------|

[Bridge]


e|-----------------------------|
B|---0--0----0--0----0--1------|
G|--0-0--0--0-0--0--0-0--------|
D|-----------------------------|
A|-3---3-----------0-----------|
E|---------3---3---------------|
Suggest correction
comments
print report bad tab
5 comments total. Showing first comments.
0 reply
soulerror 10 Jun 07, 2005 08:00 PM

Bravo on the tabbing. I too would like to see an ending, but I figured it was just some variation of the chorus. Thanks!

0 reply
echo1714 10 Jan 31, 2006 02:43 PM

not very accurate wrong notes

0 reply
guitarfanatic27 10 Mar 08, 2006 02:51 PM

almost man.. almost..
still with a capo on the 2nd
E|-------------------------------------------------------|
B|-------0--------------0------------0---3--0--1--0------|
G|-0-0-2---2-0----0-0-2----2-0-------0-------------2-0---|repeat,
D|2-2-2-2-2-2--2-0-0-0-0-0--0--2-----2-------------------|however
A|------------------------------3-3--3--3--3--3--3-------|many
E|-------------------------------------------------------|times
hope it makes sense. thats how i play it. use your fingers and constantly pluck the bass note with your thumb. i think it sounds good this way. if u dont like it just take out the bass plucks
thanx for the chorus part by the way

guest
You may want to rate the tab now too:
select rating
Wanna post a correction for this tab? Suggest correction