Oops, an error
Loading. Please wait.

Title And Registration Bass Tab

version 2
version 2

Whole song

Interactive

3,778 views 1 this week
no commentswrite comment
1 2 3 4 5
please rate
add to favorites
launch autoscroll
font size
0
reset
guitar tuner
Tab Pro tools
  • play this tab
  • loop segment
  • change instrument
  • show fretboard
  • metronome
×
Best way to learn
"Title And Registration"
Autoscroll
slow
fast
+/-
esc
set tempo
stop
Contributor
Tabbed By : jaronthebassist

                          Title And Registration                           


                                                        Death Cab For Cutie
Bass



      Q    Q    E  E  E  E     E   E  E  E  E  E  E  E   
G||-------------------------|---------------------------|
D||*-------7-------7-----9--|-----11-----9-----7-----7--|
A||*--9---------9-----9-----|--9------9-----9-----9-----|
E||-------------------------|---------------------------|


  Q    Q    E  E  E  E     E   E  E  E  E  E  E  E   
------------------------|---------------------------|
-------7-------7-----9--|-----11-----9-----7-----7--|
--7---------7-----7-----|--7------7-----7-----7-----|
------------------------|---------------------------|


  Q    Q    Q    E  E     E  E  E  E  E  E  E  E   
------------7-------9--|-----6-----7-----6--------|
-------7----7----0-----|--0-----0-----0-----9--7--|
--5---------5----------|--------------------------|
-----------------------|--------------------------|


  Q    Q    E  E  E  E     E   E  E  E  E  E  E  E   
------------------------|---------------------------|
-------7-------7-----9--|-----11-----9-----7-----7--|
--9---------9-----9-----|--9------9-----9-----9-----|
------------------------|---------------------------|


  Q    Q    E  E  E  E     E   E  E  E  E  E  E  E   
------------------------|---------------------------|
-------7-------7-----9--|-----11-----9-----7-----7--|
--7---------7-----7-----|--7------7-----7-----7-----|
------------------------|---------------------------|


  Q    Q    Q    E  E       W                     E  E  E  E  E  E  E  E   
------------7-------9---||-------------------||---------------------------|
-------7----7----0-----*||--0----------------||*--------------------------|
--5---------5----------*||-------------------||*--------------------------|
------------------------||-------------------||---5--5--5--5--5--5--5--5--|


  E  E  E  E  E  E  E  E     E  E  E  E  E  E  E  E   3x
--------------------------|---------------------------||
--------------------------|--------------------------*||
--------------------------|--5--5--5--5--5--5--5--5--*||
--7--7--7--7--7--7--7--7--|---------------------------||


  E  E  E  E  E  E  E  E     E  E  E  E  E  E  E  E   
--------------------------|--------------------------|
--------------------------|--------------------------|
--------------------------|--------------------------|
--5--5--5--5--5--5--5--5--|--7--7--7--7--7--7--7--7--|


  Q    Q    E  E  E  E     E  Q    Q    E  E  E     Q    Q    E  E  E  E   
------------------------|------------------------|------------------------|
------------------------|------------------------|------------------------|
--5----5----5--5--4-----|------------------------|------------------4--4--|
---------------------0--|--L--2----2----0--2--0--|--5----5----5--7--------|


  E  Q    Q    E  E  E     Q    Q    E  E  E  E     E  Q    Q    Q    E   
------------------------|------------------------|-----------------------|
------------------------|------------------------|-----------------------|
--L---------------4--0--|--5----5----5--5--4-----|--------------------0--|
-----0----0----0--------|---------------------0--|--L--2----2----2-------|


    Q    Q    E  E  E  E     E  Q    Q    E  E  E   
|-------------------------|------------------------|
|*------------------------|------------------------|
|*--5----5----5--5--4-----|------------------------|
|----------------------0--|--L--2----2----0--2--0--|


  Q    Q    E  E  E  E     E  Q    Q    E  E  E     Q    Q    E  E  E  E   
------------------------|------------------------|------------------------|
------------------------|------------------------|------------------------|
------------------4--4--|--L---------------4--0--|--5----5----5--5--4-----|
--5----5----5--7--------|-----0----0----0--------|---------------------0--|


  E  Q    Q    Q    E     Q    Q    E  E  E  E     E  Q    Q    E  E  E   
-----------------------|------------------------|------------------------|
-----------------------|------------------------|------------------------|
--------------------0--|--5----5----5--5--4-----|------------------------|
--L--2----2----2-------|---------------------0--|--L--2----2----0--2--0--|


  Q    Q    E  E  E  E     E  Q    Q    E  E  E   
------------------------|------------------------|
------------------------|------------------------|
------------------4--4--|--L---------------4--0--|
--5----5----5--7--------|-----0----0----0--------|


  Q    Q    E  E  E  E       E  E  E  E  E  E  E  E   
-------------------------||--------------------------|
------------------------*||--------------------------|
--5----5----5--5--4--0--*||--5--5--5--5--5--5--5--5--|
-------------------------||--------------------------|


    E  E  E  E  E  E  E  E     E  E  E  E  E  E  E  E   
|---------------------------|--------------------------|
|*--------------------------|--------------------------|
|*--------------------------|--------------------------|
|---5--5--5--5--5--5--5--5--|--7--7--7--7--7--7--7--7--|


  E  E  E  E  E  E  E  E   3x  E  E  E  E  E  E  E  E   
---------------------------||--------------------------|
--------------------------*||--------------------------|
--5--5--5--5--5--5--5--5--*||--------------------------|
---------------------------||--5--5--5--5--5--5--5--5--|


  E  E  E  E  E  E  E  E       Q    Q    Q    Q     
--------------------------||-----------------------|
--------------------------||*----------------------|
--------------------------||*-------4---------4----|
--7--7--7--7--7--7--7--7--||---2---------2---------|


  E  E  E  E  E  Q.         E  E  E  E  E  E  E  E     
-------------------------|---------------------------||
-------------------------|--------------------------*||
--5--5-----5--5--5S------|--2--2--2--2--2--2--2--2--*||
-------------------------|---------------------------||


  E  E  E  E  E  E  E  E     E  E  E  E  E  E  E  E   
--------------------------|--------------------------|
--------------------------|--------------------------|
--------4--4--------4--4--|--5--5--5--5--5--5--5--5--|
--2--2--------2--2--------|--------------------------|


    E  E  E  E  E  E  E  E     E  E  E  E  E  E  E  E   
|---------------------------|--------------------------|
|*--------------------------|--------------------------|
|*--------------------------|--------------------------|
|---5--5--5--5--5--5--5--5--|--7--7--7--7--7--7--7--7--|


  E  E  E  E  E  E  E  E   4x  E  E  E  E  E  E  E  E   
---------------------------||--------------------------|
--------------------------*||--------------------------|
--5--5--5--5--5--5--5--5--*||--------------------------|
---------------------------||--5--5--5--5--5--5--5--5--|


  E  E  E  E  E  E  E  E     E  E  E  E  E  E  E  E   
--------------------------|--------------------------|
--------------------------|--------------------------|
--------------------------|--5--5--5--5--5--5--5--5--|
--7--7--7--7--7--7--7--7--|--------------------------|


  E  E  E  Q    E  E  E     E  E  E  E  E  E  E  E   
-------------------------|--------------------------|
-----------7----7--7-----|--------------------------|
--5--5--5-------------5--|--5--5--5--5--5--5--5--5--|
-------------------------|--------------------------|


  E  E  E  Q    E  E  E     E  E  E  E  E  E  E  E   
-------------------------|--------------------------|
-------------------------|--------------------------|
--5--5--5--7----7--7--5--|--5--5--5--5--5--5--5--5--|
-------------------------|--------------------------|


  E  E  E  Q    E  E  E     E  E  E  E  E  E  E  E   
-------------------------|--------------------------|
-----------7----7--7-----|--------------------------|
--5--5--5-------------5--|--5--5--5--5--5--5--5--5--|
-------------------------|--------------------------|


  E  E  E  Q    E  E  E    
-------------------------||
-----------4----4--4-----||
--5--5--5-------------5--||
-------------------------||




Duration Legend
---------------
W - whole
H - half
Q - quarter
E - 8th
S - 16th
T - 32nd
X - 64th
. - note dotted
|-n-|  - n-tuplets


Tablature Legend
----------------
L - tied note
x - dead note
g - grace note
(n) - ghost note
> - accentuded note
NH - natural harmonic
AH - artificial harmonic
TH - tapped harmonic
SH - semi harmonic
PH - pitch harmonic
h - hammer on
p - pull off
b - bend
br - bendRelease
pb - preBend
pbr - preBendRelease
brb - bendReleaseBend
\n/ - tremolo bar dip
\n - tremolo bar dive
-/n - tremolo bar Release up
/n\ - tremolo bar inverted dip
/n - tremolo bar return
-\n - tremolo bar Release down
S - shift slide
s - legato slide
/ -  slide into from below or out of upwards
\ -  slide into from above or out of downwards
~ - vibrato
W - wide vibrato
tr - trill
TP - tremolo picking
T - tapping
S - slap
P - pop
< - fade in
^ - brush up
v - brush down
comments
We did not receive enough feedback on this tab! Please rate:
print report bad tab
1 2 3 4 5
I want to post or [tab]
guest
You may want to rate the tab now too:
select rating
Please do not post tabs as comments. Select "correction" instead!