Oops, an error
Loading. Please wait.

Title And Registration Tab

version 4
version 4
11,307 views 1 this week
no commentswrite comment
1 2 3 4 5
accurate
x 2
add to favorites
launch autoscroll
font size
0
reset
how to read this tab
guitar tuner
Tab Pro tools
  • play this tab
  • loop segment
  • change instrument
  • show fretboard
  • metronome
×
Best way to learn
"Title And Registration"
Autoscroll
slow
fast
+/-
esc
set tempo
stop
Contributor
-------------------------------------------------------------------------------
               TITLE AND REGISTRATION - Death Cab for Cutie
-------------------------------------------------------------------------------
Tabbed by: Anthony Ngo
Email: anthony.ngo0o@gmail.com

Tuning: Standard

Um. Still my first tab. If you guys at ultimate-guitar see the first title and
registration tab I submitted, I accidently mixed up some lines. This one has been
corrected.

:: The '*'s are on the beat.

Intro/Verse:
  *   *   *   *   *   *   *   *   *   *   *   *   *   *   *   *
e|---------------|---------------|---------------|---------------|
B|---------------|---------------|---------------|---------------|
G|----2-----2---4|--6---4---2----|----2-----2---4|--6---4---2---2|
D|4-------4---4--|4---4---4---4-0|2-------2---2--|2---2---2---2--|
A|---------------|---------------|---------------|---------------|
E|---------------|---------------|---------------|---------------|

  *   *   *   *   *   *   *   *                  *   *   *   *
e|---------------|---------------|             e|---------------|
B|--------2-----5|--2---3---2----|             B|--------2------|
G|--------2------|------------4-2|  1st time   G|--------2-----2|   2nd Time
D|--------4------|---------------|             D|--------4------|
A|5---5---5------|---------------|             A|5---5---5------|
E|---------------|---------------|             E|---------------|


Chorus:
  *   *   *   *   *   *   *   *   *   *   *   *
e|---------------|---------------|---------------|
B|----2-----2----|----2-----2----|----2---3------|
G|--2---2-----2--|--2---2-----2--|--2---2--------|    4 Times
D|0-------0-----0|---------------|---------------|
A|---------------|0-------0-----0|2--------------|
E|---------------|---------------|---------------|


Bridge: Same as first part of Intro
Verse x2
Chorus x6

Then

  *   *   *   *
e|---------------|
B|----2-----2----|
G|--2---2-------2|
D|0-------0------|
A|---------------|
E|---------------|

Chorus X5

Then as you end I think you just play this over and over. Just make sure to end on open D

  *   *   *   *   *   *   *   *   *   *   *   *
e|---------------|---------------|---------------|
B|----2-----2----|2-----2-----2--|--2-----2-----2|
G|--2-----2-----2|----2-----2----|2-----2-----2--|
D|0-----0-----0--|--0-----0-----0|----0-----0----|
A|---------------|---------------|---------------|
E|---------------|---------------|---------------|

===================================================================
-------------------------------------------------------------------
===================================================================

Note: You can also play the verse and intro lower like such,


  *   *   *   *   *   *   *   *   *   *   *   *   *   *   *   *
e|---------------|---------------|---------------|---------------|
B|---------------|--2------------|---------------|--2------------|
G|----2-----2---4|------4---2----|----2-----2---4|------4---2---2|
D|4-------4---4--|4---4---4---4-0|2-------2---2--|2---2---2---2--|
A|---------------|---------------|---------------|---------------|
E|---------------|---------------|---------------|---------------|

  *   *   *   *   *   *   *   *                  *   *   *   *
e|---------------|---------------|             e|---------------|
B|--------2-----5|--2---3---2----|             B|--------2------|
G|--------2------|------------4-2|  1st time   G|--------2-----2|   2nd Time
D|--------4------|---------------|             D|--------4------|
A|5---5---5------|---------------|             A|5---5---5------|
E|---------------|---------------|             E|---------------|

(All of the 4's on the G string can be played easier with open B.)

OR:

  *   *   *   *   *   *   *   *    *   *   *   *   *   *   *   *
e|---------------|----------------|---------------|---------------|
B|---------------|----------------|---------------|---------------|
G|---------------|----------------|---------------|---------------|
D|----7-----7---9|--11--9---7-----|----7-----7---9|--11--9---7---7|
A|9-------9---9--|9---9---9---9---|7-------7---7--|7---7---7---7--|
E|---------------|--------------10|---------------|---------------|

  *   *   *   *   *   *   *   *          *   *   *   *
e|---------------|---------------|     e|---------------|
B|--------2------|---------------|     B|--------2------|
G|--------2-----9|--6---7---6----|     G|--------2------|
D|--------4------|------------9-7|     D|--------4-----7|
A|5---5---5------|---------------|     A|5---5---5------|
E|---------------|---------------|     E|---------------|
comments
We did not receive enough feedback on this tab! Please rate:
print report bad tab
1 2 3 4 5
I want to post or [tab]
guest
You may want to rate the tab now too:
select rating
Please do not post tabs as comments. Select "correction" instead!