Oops, an error
Loading. Please wait.

Title And Registration Tab

version 5
version 5
10,698 views 18 this week
5 commentsread comments
1 2 3 4 5
accurate
x 8
add to favorites
launch autoscroll
font size
0
reset
how to read this tab
guitar tuner
Autoscroll
slow
fast
+/-
esc
set tempo
stop
Help us to improve Ultimate-Guitar.com Take our survey!
×
Author
Difficulty
intermediate
|------------------------------------------------------------------|
|------------------------------------------------------------------|
|--------------6---------------------6-------------6---9-6-7-6-----|
|----7---7---9---9-7-------7---7---9---9-7---------7-----------9-7-|
|--9---9---9---------9-7-7---7---7---------9-7-5-5-5-5-------------|
|------------------------------------------------------------------|

|-----------------------------------------------------------------|
|-----------------------------------------------------------------|
|--------------6---------------------6-------------6--------------|
|----7---7---9---9-7-------7---7---9---9-7---------7--------------|
|--9---9---9---------9-7-7---7---7---------9-7-5-5-5-5-5----------|
|-----------------------------------------------------------------|

|------------------------------------------------------------------|
|------------------------------------------------------------------|
|--------------6---------------------6-------------6---9-6-7-6-----|
|----7---7---9---9-7-------7---7---9---9-7---------7-----------9-7-|
|--9---9---9---------9-7-7---7---7---------9-7-5-5-5-5-------------|
|------------------------------------------------------------------|
The glove compartment, is not accurately named, and everybody knows it.

|-----------------------------------------------------------------|
|-----------------------------------------------------------------|
|--------------6---------------------6-------------6--------------|
|----7---7---9---9-7-------7---7---9---9-7---------7-------7---7--|
|--9---9---9---------9-7-7---7---7---------9-7-5-5-5-5-5-9---9----|
|-----------------------------------------------------------------|
So I'm proposing, a swift orderly change.

|------------------------------------------------------------------|
|------------------------------------------------------------------|
|------6-------6-------6-------6-------6-------6-------6-------6---|
|----7---7---7---7---7---7---7---7---7---7---7---7---7---7---7---7-|
|--9-------9-------9-------9-------7-------7-------7-------7-------|
|------------------------------------------------------------------|
Cause behind its doors, theres nothing to keep my fingers warm.
And all I find, are souveneres from better times

|------------------------------------------------------------------|
|------------------------------------------------------------------|
|------6-------6-------6-------6-------6-------6-------6-------6---|
|----7---7---7---7---7---7---7---7---7---7---7---7---7---7---7---7-|
|--9-------9-------9-------9-------7-------7-------7-------7-------|
|------------------------------------------------------------------|
Before the gleam, of your tail-lights fading please, to find, yourself a better life

|------------------------------------------------------------------|
|------------------------------------------------------------------|
|--------------6---------------------6-------------6---9-6-7-6-----|
|----7---7---9---9-7-------7---7---9---9-7---------7-----------9-7-|
|--9---9---9---------9-7-7---7---7---------9-7-5-5-5-5-------------|
|------------------------------------------------------------------|

|-----------------------------------------------------------------|
|-----------------------------------------------------------------|
|--------------6---------------------6-------------6--------------|
|----7---7---9---9-7-------7---7---9---9-7---------7--------------|
|--9---9---9---------9-7-7---7---7---------9-7-5-5-5-5-5----------|
|-----------------------------------------------------------------|

|------------------------------------------------------------------|
|------------------------------------------------------------------|
|--------------6---------------------6-------------6---9-6-7-6-----|
|----7---7---9---9-7-------7---7---9---9-7---------7-----------9-7-|
|--9---9---9---------9-7-7---7---7---------9-7-5-5-5-5-------------|
|------------------------------------------------------------------|
I was searching, for some legal document, as the rain beat down on the herd

|-----------------------------------------------------------------|
|-----------------------------------------------------------------|
|--------------6---------------------6-------------6--------------|
|----7---7---9---9-7-------7---7---9---9-7---------7--------------|
|--9---9---9---------9-7-7---7---7---------9-7-5-5-5-5-5----------|
|-----------------------------------------------------------------|
When i stubled upon, pictures i tried to forget.

|------------------------------------------------------------------|
|------------------------------------------------------------------|
|--------------6---------------------6-------------6---9-6-7-6-----|
|----7---7---9---9-7-------7---7---9---9-7---------7-----------9-7-|
|--9---9---9---------9-7-7---7---7---------9-7-5-5-5-5-------------|
|------------------------------------------------------------------|
And thats how this idea, was drilled into my head.

|-----------------------------------------------------------------|
|-----------------------------------------------------------------|
|--------------6---------------------6-------------6--------------|
|----7---7---9---9-7-------7---7---9---9-7---------7--------------|
|--9---9---9---------9-7-7---7---7---------9-7-5-5-5-5-5----------|
|-----------------------------------------------------------------|
Cause' it's too important, to stay the way it's been.

|------------------------------------------------------------------|
|------------------------------------------------------------------|
|------6-------6-------6-------6-------6-------6-------6-------6---|
|----7---7---7---7---7---7---7---7---7---7---7---7---7---7---7---7-|
|--9-------9-------9-------9-------7-------7-------7-------7-------|
|------------------------------------------------------------------|
And theres no blame, for how our love did slowly fade. And now its gone, it's like it 
there at all.

|------------------------------------------------------------------|
|------------------------------------------------------------------|
|------6-------6-------6-------6-------6-------6-------6-------6---|
|----7---7---7---7---7---7---7---7---7---7---7---7---7---7---7---7-|
|--9-------9-------9-------9-------7-------7-------7-------7-------|
|------------------------------------------------------------------|
And here I rest, when dissapointment and regret,collide, lying awake at....

|-------------------------------------9---------------------------|
|--7-9-10-7-9-10---10---7-9-10-7-9-10---10-9----------------------|
|----------------7----9-------------------------------------------|
|-----------------------------------------------------------------|
|-----------------------------------------------------------------|
|-----------------------------------------------------------------|
....night.

|------------------------------7-9--------------------------------|
|--7-9-10-7-9-10---10---7-9-10------------------------------------|
|----------------7----9-------------------------------------------|
|-----------------------------------------------------------------|
|-----------------------------------------------------------------|
|-----------------------------------------------------------------|

|------------------------------------------------------------------|
|------------------------------------------------------------------|
|------6-------6-------6-------6-------6-------6-------6-------6---|
|----7---7---7---7---7---7---7---7---7---7---7---7---7---7---7---7-|
|--9-------9-------9-------9-------7-------7-------7-------7-------|
|------------------------------------------------------------------|
And theres no blame, for how our love did slowly fade. And now its gone, it's like it 
there at all.

|------------------------------------------------------------------|
|------------------------------------------------------------------|
|------6-------6-------6-------6-------6-------6-------6-------6---|
|----7---7---7---7---7---7---7---7---7---7---7---7---7---7---7---7-|
|--9-------9-------9-------9-------7-------7-------7-------7-------|
|------------------------------------------------------------------|
And here I rest, when dissapointment and regret,collide, lying awake at night.

|------------------------------------------------------------------|
|------------------------------------------------------------------|
|------6-------6-------6-------6-------6-------6-------6-------6---|
|----7---7---7---7---7---7---7---7---7---7---7---7---7---7---7---7-|
|--9-------9-------9-------9-------7-------7-------7-------7-------|
|------------------------------------------------------------------|

|------------------------------------------------------------------|
|------------------------------------------------------------------|
|------6-------6-------6-------6-------6-------6-------6-------6---|
|----7---7---7---7---7---7---7---7---7---7---7---7---7---7---7---7-|
|--9-------9-------9-------9-------9-------9-------9-------9-------|
|------------------------------------------------------------------|

|-------------------------------------------------------------------|
|-------------------------------------------------------------------|
|------6-------6-------6-------6-------6-------6-------6-------6----|
|----7---7---7---7---7---7---7---7---7---7---7---7---7---7---7---7--|
|--9-------9-------9-------9-------9-------9-------9-------9------9-|
|-------------------------------------------------------------------|


End the last note with a loud bang.    this is my first tab so tell me if its good.
Suggest correction
comments
print report bad tab
5 comments total. Showing first comments.
0 reply
mistaman 295 wrote on July 15 2006, 01:22 pm

sounds right to me but i still like the one played on ower frets. but all the notes are spot on.

0 reply
galateastilston 278 wrote on July 18 2006, 11:53 pm

Thanks! this is the first one to go through the whole song with lyrics, which is a relief.

0 reply
anonymous-Jim 10 wrote on January 20 2007, 05:07 pm

This seems to be everybodys frist tab. its mine aswell.

guest
You may want to rate the tab now too:
select rating
Wanna post a correction for this tab? Suggest correction