Oops, an error
Loading. Please wait.

Title And Registration Tab

version 6
version 6
10,427 views 1 this week
no commentswrite comment
1 2 3 4 5
x 3
add to favorites
launch autoscroll
font size
0
reset
how to read this tab
guitar tuner
Autoscroll
slow
fast
+/-
esc
set tempo
stop
Help us to improve Ultimate-Guitar.com Take our survey!
×
Author
Difficulty
intermediate
------------------------------------------------------------------------
		Title and Registration - Death Cab For Cutie
------------------------------------------------------------------------
Tabbed by: Joel Desermeau (Jayinater)
My Website: http://www.myspace.com/joelgarantkelly12
Email: jayinater@gmail.com

Tuning:  Standard EADGBE	Capo:  2


=INTRO=
|-----------------------------------------------------------------------|
|----------0-------------------0---------------^0----3---0---1---0------|
|--0-0-2-------2---0---0-0-2-------2---0-0-----^0------------------2-0--|
|-2-2-2-(2)-(2)-(2)-2-0-0-0-(0)-(0)-(0)-0------^2-----------------------|
|--------------------3---------------------3-3-^3-(3)-(3)-(3)-(3)-(3)---|
|-----------------------------------------------------------------------|

|-------------------------------------------------------|
|----------0-------------------0---------------^0-------|
|--0-0-2-------2---0---0-0-2-------2---0-0-----^0----0--|
|-2-2-2-(2)-(2)-(2)-2-0-0-0-(0)-(0)-(0)-0------^2-------|
|--------------------3---------------------3-3-^3-(3)---|
|-------------------------------------------------------|



=VERSE 1=
|-----------------------------------------------------------------------|
|----------0-------------------0---------------^0----3---0---1---0------|
|--0-0-2-------2---0---0-0-2-------2---0-0-----^0------------------2-0--|
|-2-2-2-(2)-(2)-(2)-2-0-0-0-(0)-(0)-(0)-0------^2-----------------------|
|--------------------3---------------------3-3-^3-(3)-(3)-(3)-(3)-(3)---|
|-----------------------------------------------------------------------|

|----------------------------------------------------------------|
|----------0-------------------0---------------^0--------0--0----|
|--0-0-2-------2---0---0-0-2-------2---0-0-----^0----0--0--0-0---|
|-2-2-2-(2)-(2)-(2)-2-0-0-0-(0)-(0)-(0)-0------^2------2--2---0--|
|--------------------3---------------------3-3-^3-(3)------------|
|----------------------------------------------------------------|



=CHORUS 1=			 (x3) 			 to verse->
|-------------------------------|---------------------------------|
|-----0--0-----0-1-0----0--0----|-----0----0--------0---1---0-----|
|---0---0--0--0-0-0-0--0--0--0--|---0----0----0---0---0---0---0---|
|-------------------------------|---------------------------------|
|------------0--------3--3--3---|----------------0----------------|
|--3---3--3---------------------|--3----3----3--------------------|



=VERSE 2=
|-----------------------------------------------------------------------|
|----------0-------------------0---------------^0----3---0---1---0------|
|--0-0-2-------2---0---0-0-2-------2---0-0-----^0------------------2-0--|
|-2-2-2-(2)-(2)-(2)-2-0-0-0-(0)-(0)-(0)-0------^2-----------------------|
|--------------------3---------------------3-3-^3-(3)-(3)-(3)-(3)-(3)---|
|-----------------------------------------------------------------------|

|----------------------------------------------------------------|
|----------0-------------------0---------------^0--------0--0----|
|--0-0-2-------2---0---0-0-2-------2---0-0-----^0----0--0--0-0---|
|-2-2-2-(2)-(2)-(2)-2-0-0-0-(0)-(0)-(0)-0------^2------2--2---0--|
|--------------------3---------------------3-3-^3-(3)------------|
|----------------------------------------------------------------|

|----------------------------------------------------------------|
|----------0-------------------0---------------^0--------0--0----|
|--0-0-2-------2---0---0-0-2-------2---0-0-----^0----0--0--0-0---|
|-2-2-2-(2)-(2)-(2)-2-0-0-0-(0)-(0)-(0)-0------^2------2--2---0--|
|--------------------3---------------------3-3-^3-(3)------------|
|----------------------------------------------------------------|


|-----------------------------------------------------------------------|
|----------0-------------------0---------------^0----3---0---1---0------|
|--0-0-2-------2---0---0-0-2-------2---0-0-----^0------------------2-0--|
|-2-2-2-(2)-(2)-(2)-2-0-0-0-(0)-(0)-(0)-0------^2-----------------------|
|--------------------3---------------------3-3-^3-(3)-(3)-(3)-(3)-(3)---|
|-----------------------------------------------------------------------|

|----------------------------------------------------------------|
|----------0-------------------0---------------^0--------0--0----|
|--0-0-2-------2---0---0-0-2-------2---0-0-----^0----0--0--0-0---|
|-2-2-2-(2)-(2)-(2)-2-0-0-0-(0)-(0)-(0)-0------^2------2--2---0--|
|--------------------3---------------------3-3-^3-(3)------------|
|----------------------------------------------------------------|



=CHORUS 2=			 (x3)
|-------------------------------|---------------------------------|
|-----0--0-----0-1-0----0--0----|-----0----0--------0---1---0-----|
|---0---0--0--0-0-0-0--0--0--0--|---0----0----0---0---0---0---0---|
|-------------------------------|---------------------------------|
|------------0--------3--3--3---|----------------0----------------|
|--3---3--3---------------------|--3----3----3--------------------|




=SOLO=	 (Rhythm on bottom, solo on top) (No capo for solo)
|--------------------------------------9----------|
|--7-9-10--7-9-10----7----7-9-10--7-10-------7----|
|-----------------7-9--9-----------------7-9---9--|
|-------------------------------------------------|
|-------------------------------------------------|
|-------------------------------------------------|
|						  |
|						  |
|-------------------------------------------------|
|---0--0-----0--0------0---1---0------0---0-------|
|--0--0--0--0--0--0--0---0---0---0--0---0---0-----|
|-------------------------------------------------|
|-------------------0-----------------------------|
|-0--0--0--3--3--3-----------------3---3---3------|

						
|-----------------------------------7--9----------|
|--7-9-10--7-9-10-----7-----7-9-10----------------|
|-----------------7-9---9-------------------------|
|-------------------------------------------------|
|-------------------------------------------------|
|-------------------------------------------------|
|						  |
|						  |
|-------------------------------------------------|
|---0--0-----0--0------0---1---0------0---0-------|
|--0--0--0--0--0--0--0---0---0---0--0---0---0-----|
|-------------------------------------------------|
|-------------------0-----------------------------|
|-0--0--0--3--3--3-----------------3---3---3------|



=CHORUS 3=			 (x3)			to ending->
|-------------------------------|---------------------------------|
|-----0--0-----0-1-0----0--0----|-----0----0--------0---1---0-----|
|---0---0--0--0-0-0-0--0--0--0--|---0----0----0---0---0---0---0---|
|-------------------------------|---------------------------------|
|------------0--------3--3--3---|----------------0----------------|
|--3---3--3---------------------|--3----3----3--------------------|



=ENDING= (repeat about 3-5 times)
|--------------------|
|------0-----0-------|
|----0-----0-----0---|
|--------------------|
|--3-----3-----3-----|
|--------------------|
Suggest correction
Give kudos to tab author, rate the tab!
1 2 3 4 5
comments
print report bad tab
guest
You may want to rate the tab now too:
select rating
Wanna post a correction for this tab? Suggest correction