Oops, an error
Loading. Please wait.

Title Track Tab

version 2
version 2

Whole song

Interactive

18,395 views 57 this week
2 commentsread comments
1 2 3 4 5
x 8
add to favorites
launch autoscroll
font size
0
reset
how to read this tab
guitar tuner
×
Best way to learn
"Title Track"
Autoscroll
slow
fast
+/-
esc
set tempo
stop
Author
Difficulty
  follow
intermediate
Tuning: Standard

(Guitar 1)
(Main Riff - Start with the tone down on your guitar, or use the neck pickup.)
e|---------------------------------------------------------------------------|
B|--------------------------------2------------------------------------------|
G|------4-------4-------4-------4-------4-------4-------4/6/9----------------|
D|----2---2---2---2---2---2---2-------2---2---2---2---2----------------------|
A|--4-------2-------4-------0-------4-------2-------0------------------------|
E|---------------------------------------------------------------------------| (x6)

(Guitar 2) 
(Tone also very low. This is mostly improv, but there is a melody.
It's also hard to hear and it may just be keyboards, but it's worth tabbing.)
e|---------------------------------------------------------------------------|
B|---------------------------------------------------------------------------|
G|--13-13-13-13-13-13-13-13-13-13-11-11-11-11-13-13-13-13-13-13-13-11-11\9~~-|
D|---x--x--x--x--x--x--x--x--x--x--x--x--x--x--x--x--x--x--x--x--x--x--x-x---|
A|--11-11-11-11-11-11-11-11-11-11--9--9--9--9-11-11-11-11-11-11-11--9--9\7~~-| (x6)
E|---------------------------------------------------------------------------|
  
[Chorus] (x2)
e|---------------------------------------------------------------------------|
B|-------0------0-0----------------------------------------------------------|
G|--------6-------4/8----8-------8-8-----------------------------------------|
D|-----------------------x---9---x-x-----------------------------------------|
A|--0-0-----0-0----------x---x---9-9-----------------------------------------|
E|--------------------7--7---7-----------------------------------------------|

(Guitar 1)
(Main Riff - Start with the tone down on your guitar, or use the neck pickup.)
e|---------------------------------------------------------------------------|
B|--------------------------------2------------------------------------------|
G|------4-------4-------4-------4-------4-------4-------4/6/9----------------|
D|----2---2---2---2---2---2---2-------2---2---2---2---2----------------------|
A|--4-------2-------4-------0-------4-------2-------0------------------------|
E|---------------------------------------------------------------------------| 
 
(Guitar 2 comes in with the subtle harmonies)
e|---------------------------------------------------------------------------|
B|--12--12--12--12--12----------------------12--12--12--12--12--12--12-------|
G|----13--13--13--13--13-14-13-13-11-11-13----13--13--13--13--13--13--13-----|
D|------------------------x--x--x-x---x--x-----------------------------------|
A|-----------------------12\11-11\9---9/11-----------------------------------|
E|---------------------------------------------------------------------------|

[Chorus] (x4)
e|---------------------------------------------------------------------------|
B|-------0------0-0----------------------------------------------------------|
G|--------6-------4/8----8-------8-8-----------------------------------------|
D|-----------------------x---9---x-x-----------------------------------------|
A|--0-0-----0-0----------x---x---9-9-----------------------------------------|
E|--------------------7--7---7-----------------------------------------------|

[Outro]
(Guitar 1) 
(Over and over)
e|---------------------------------------------------------------------------|
B|-------------------4---4---0----------------------------0------------------|
G|--------------------------------------------------6--6---------------------|
D|------6--4--2----------------------6--4--2---------------------------------|
A|--0-0--0--0--0-4-4---4---4---4-0-0--0--0--0-2/7-7--7--7---7----------------|
E|---------------------------------------------------------------------------|

(Guitar 2) 
(Repeat until Ben is done singing.)
e|---------------------------------------------------------------------------|
B|----12--12--12------10--10--10---------------------------------------------|
G|--13--13--13--13--13--13--13--13-------------------------------------------|
D|---------------------------------------------------------------------------|
A|---------------------------------------------------------------------------|
E|---------------------------------------------------------------------------|

(After Ben stops singing, guitar 2 switches to:)
e|---------------------------------------------------------------------------|
B|-12-12-12-12-12-12-12-12-12-12-12-12-12-12-12------------------------------|
G|--x--x--x--x--x--x--x--x--x--x--x--x--x--x--x------------------------------|
D|--9--9--9--9--9--9--9--9--9--9--9--9--9--9--9------------------------------|
A|---------------------------------------------------------------------------|
E|---------------------------------------------------------------------------|

(Eventually, Guitar 1 cuts and guitar 2 finishes playing) 
(very lightly)
e|---------------------------------------------------------------------------|
B|--9-9-9-9-9-9-9-9--12-12-12-12-12-12-12-12-12------------------------------|
G|--9-9-9-9-9-9-9-9---x--x--x--x--x--x--x--x--x------------------------------|
D|--7-7-7-7-7-7-7-7---9--9--9--9--9--9--9--9--9------------------------------|
A|---------------------------------------------------------------------------|
E|---------------------------------------------------------------------------|


************************************

| /  Slide up
| \  Slide down
| ~  Vibrato
| x  Dead note

************************************
Suggest correction
comments
print report bad tab
2 comments total.
0 reply
GuilleDCFC 31 Nov 26, 2008 11:56 AM

Best tab ever dude, you play it the same way i do.
Nice tab bro, keep it up !

0 reply
multimediaspeak 132 Aug 31, 2010 07:32 PM

very good tab-- however i think the first part of the chorus is easier if you play it like i have below-- its the same notes posted but on different strings-- this way you can just put your hand in the position for an A chord and then move it up to the position for the B chord-- just a suggestion and again nice tab


e|---------------------------|
B|---------0---------0-------|
G|-----------6----------8----|
D|---------------------------|
A|---------------------------|
E|----5-5-------5-5----------|

guest
You may want to rate the tab now too:
select rating
Wanna post a correction for this tab? Suggest correction