Oops, an error
Loading. Please wait.

Transatlanticism Bass Tab

version 1
version 1

Whole song

Interactive

4,280 views 6 this week
no commentswrite comment
1 2 3 4 5
please rate
add to favorites
launch autoscroll
font size
0
reset
guitar tuner
Autoscroll
slow
fast
+/-
esc
set tempo
stop
Help us to improve Ultimate-Guitar.com Take our survey!
×
Author
Difficulty
novice
-------------------------------------------------------------------------------
	Transatlanticism - Death cab for cutie
-------------------------------------------------------------------------------

Tabbed By : alpay
e-mail: alpizle@yahoo.com

Tuning: normal
bass doesnt come in until the last verse if you listen to the song the bass comes in 
the drums come in.
chorus A                      repeat x4
G|---------------------------------------------------------------------------|
D|--0-0-0-0-----4------------------------------------------------------------|
A|----------0-0--------------------------------------------------------------|
E|----------------0----------------------------------------------------------|
chorus B                   repeat x1
G|---------------------------------------------------------------------------|
D|--4-4-4-4---------0-0-0-0---------4-4-4-4---------0-0-0-0-----4------------|
A|----------4-4-4-4-------------------------2-2-2-2---------0-0--------------|
E|--------------------------0-0-0-0-------------------------------0----------|
chorus A                 repeat x4
G|---------------------------------------------------------------------------|
D|--0-0-0-0-----4------------------------------------------------------------|
A|----------0-0--------------------------------------------------------------|
E|----------------0----------------------------------------------------------|
chorus B                   repeat x1
G|---------------------------------------------------------------------------|
D|--4-4-4-4---------0-0-0-0---------4-4-4-4---------0-0-0-0-----4------------|
A|----------4-4-4-4-------------------------2-2-2-2---------0-0--------------|
E|--------------------------0-0-0-0-------------------------------0----------|
chorus A                  repeat x 4
G|---------------------------------------------------------------------------|
D|--0-0-0-0-----4------------------------------------------------------------|
A|----------0-0--------------------------------------------------------------|
E|----------------0----------------------------------------------------------|

end on open D string
G|-------------------------------------------------------------------------|
D|--o~---------------------------------------------------------------------|
A|-------------------------------------------------------------------------|
E|-------------------------------------------------------------------------|

this my third tab so rate and enjoy
| /  slide up
| \  slide down
| h  hammer-on
| p  pull-off
| ~  vibrato
| +  harmonic
| x  Mute note
===============================================================================
Suggest correction
Give kudos to tab author, rate the tab!
1 2 3 4 5
comments
print report bad tab
guest
You may want to rate the tab now too:
select rating
Please do not post tabs as comments. Select "correction" instead!