Oops, an error
Loading. Please wait.

Tv Trays Tab

2,184 views 1 this week
4 commentsread comments
1 2 3 4 5
accurate
x 3
add to favorites
launch autoscroll
font size
0
reset
how to read this tab
guitar tuner
Autoscroll
slow
fast
+/-
esc
set tempo
stop
Help us to improve Ultimate-Guitar.com Take our survey!
×
----------------------------------------------------------------------------
                             TV Trays - Death Cab for Cutie
----------------------------------------------------------------------------
Tabbed by:Josh
Email:jbskibud@wi.rr.com

Tuning:EADGBE

The Rhythm guitar plays with heavy distortion pretty much through the whole song and
theres a little guitar in the backround.

Intro:

1st Guitar
e|----------------------------------------------|
B|----------------------------------------------|
G|-----------------------------5-5-5-5----------|
D|--7-7-7-7--5-5-5-5--4-4-4-4--5-5-5-5----------|
A|--7-7-7-7--5-5-5-5--4-4-4-4--3-3-3-3----------|
E|--5-5-5-5--3-3-3-3--2-2-2-2-------------------|

2nd Guitar
e|----------------------------------------------|
B|-----------------------3----------------------|
G|-----6--------6-------------5/6---------------|
D|-7-7---7--5-5---5--4-4---4------7-7/9-6-------|
A|----------------------------------------------|
E|----------------------------------------------|

Repeat 4 times

Verse 1:

e|-----------------------------------|
B|-----------------------------------|
G|-----------------------------------|
D|--x-x-7--x-x-7---------------------|
A|--x-x-7--x-x-7----------5---3b-----|
E|--x-x-5--x-x-5--2---4-5---5--------|

Repeat 4 times

Little Interlude Thing:(Intro)

1st Guitar
e|----------------------------------------------|
B|----------------------------------------------|
G|-----------------------------5-5-5-5----------|
D|--7-7-7-7--5-5-5-5--4-4-4-4--5-5-5-5----------|
A|--7-7-7-7--5-5-5-5--4-4-4-4--3-3-3-3----------|
E|--5-5-5-5--3-3-3-3--2-2-2-2-------------------|

2nd Guitar
e|----------------------------------------------|
B|-----------------------3----------------------|
G|-----6--------6-------------5/6---------------|
D|-7-7---7--5-5---5--4-4---4------7-7/9-6-------|
A|----------------------------------------------|
E|----------------------------------------------|

Repeat Twice

Verse 2: Same as Verse 1

e|-----------------------------------|
B|-----------------------------------|
G|-----------------------------------|
D|--x-x-7--x-x-7---------------------|
A|--x-x-7--x-x-7----------5---3b-----|
E|--x-x-5--x-x-5--2---4-5---5--------|

Chorus:

e|--------------------------------------------------------------------------|
B|--------------------------------------------------------------------------|
G|--9-9-9-9-9-9-9-9--6-6-6-6------------------------------------------------|
D|--9-9-9-9-9-9-9-9--6-6-6-6--8-8-8-8--9-9-9-9--6-6-6-6--7-7-7-7------------|
A|--7-7-7-7-7-7-7-7--4-4-4-4--8-8-8-8--9-9-9-9--6-6-6-6--7-7-7-7------------|
E|----------------------------6-6-6-6--7-7-7-7--4-4-4-4--5-5-5-5------------|

2nd Guitar
e|----------------------------------------------------------------------|
B|----------------------------------------------------------------------|
G|----------------------------------------------------------------------|
D|--6---6---6---6---11--11--8---8---9---9---6---6---7---7---9---7-------|
A|----7---7---7---7---9---9---9---9---9---9---7---7---7---7---7---7-----|
E|----------------------------------------------------------------------|

Repeat Twice

e|-------------------------------------------|
B|-------------------------------------------|
G|-------------------------------------------|
D|--6-6-6-6--7-7-7-7-7-7-7-7-11-9-7-6--------|
A|--6-6-6-6--7-7-7-7-7-7-7-7-11-9-7-6--------|
E|--4-4-4-4--5-5-5-5-5-5-5-5--9-7-5-4--------|

2nd Guitar
e|--------------------------------------------------------|
B|--------------------------------------------------------|
G|--------------------------------------------------------|
D|--6---6---7---7---7---7---7/9-7-5-4---------------------|
A|----7---7---7---7---7---7-------------------------------|
E|--------------------------------------------------------|

Repeat 4 times

Verse 3: Same as the other 2 verses

e|-----------------------------------|
B|-----------------------------------|
G|-----------------------------------|
D|--x-x-7--x-x-7---------------------|
A|--x-x-7--x-x-7----------5---3b-----|
E|--x-x-5--x-x-5--2---4-5---5--------|

Chorus 2:Same as first as chorus

e|--------------------------------------------------------------------------|
B|--------------------------------------------------------------------------|
G|--9-9-9-9-9-9-9-9--6-6-6-6------------------------------------------------|
D|--9-9-9-9-9-9-9-9--6-6-6-6--8-8-8-8--9-9-9-9--6-6-6-6--7-7-7-7------------|
A|--7-7-7-7-7-7-7-7--4-4-4-4--8-8-8-8--9-9-9-9--6-6-6-6--7-7-7-7------------|
E|----------------------------6-6-6-6--7-7-7-7--4-4-4-4--5-5-5-5------------|

2nd Guitar
e|----------------------------------------------------------------------|
B|----------------------------------------------------------------------|
G|----------------------------------------------------------------------|
D|--6---6---6---6---11--11--8---8---9---9---6---6---7---7---9---7-------|
A|----7---7---7---7---9---9---9---9---9---9---7---7---7---7---7---7-----|
E|----------------------------------------------------------------------|

Repeat Twice

e|-------------------------------------------|
B|-------------------------------------------|
G|-------------------------------------------|
D|--6-6-6-6--7-7-7-7-7-7-7-7-11-9-7-6--------|
A|--6-6-6-6--7-7-7-7-7-7-7-7-11-9-7-6--------|
E|--4-4-4-4--5-5-5-5-5-5-5-5--9-7-5-4--------|

2nd Guitar
e|--------------------------------------------------------|
B|--------------------------------------------------------|
G|--------------------------------------------------------|
D|--6---6---7---7---7---7---7/9-7-5-4---------------------|
A|----7---7---7---7---7---7-------------------------------|
E|--------------------------------------------------------|

Repeat 4 times

Outro:Play intro 4 times

1st Guitar
e|----------------------------------------------|
B|----------------------------------------------|
G|-----------------------------5-5-5-5----------|
D|--7-7-7-7--5-5-5-5--4-4-4-4--5-5-5-5----------|
A|--7-7-7-7--5-5-5-5--4-4-4-4--3-3-3-3----------|
E|--5-5-5-5--3-3-3-3--2-2-2-2-------------------|

2nd Guitar
e|----------------------------------------------|
B|-----------------------3----------------------|
G|-----6--------6-------------5/6---------------|
D|-7-7---7--5-5---5--4-4---4------7-7/9-6-------|
A|----------------------------------------------|
E|----------------------------------------------|

End on:

e|-----
B|-----
G|-----
D|--5--
A|--5--
E|--3--

I believe this tab is right, if you see any mistakes just comment on um
Suggest correction
Give kudos to tab author, rate the tab!
1 2 3 4 5
comments
print report bad tab
4 comments total. Showing first comments.
0 reply
hawleyroadcurse 70 wrote on October 24 2005, 08:00 pm

i would like to say this tab is good and that i want to have crazy butt sex with you...

0 reply
massive melee 137 wrote on June 9 2008, 08:22 pm

yeah judging from what the guy up here said...this is a good tab.

0 reply
kellan6 103 wrote on November 29 2008, 11:33 pm

i call sloppy seconds, even though its been like 3 years since he said that.

guest
You may want to rate the tab now too:
select rating
Please do not post tabs as comments. Select "correction" instead!