Oops, an error
Loading. Please wait.

Underneath The Sycamore Bass Tab

2,282 views 1 this week
1 commentread comment
1 2 3 4 5
accurate
x 4
add to favorites
launch autoscroll
font size
0
reset
guitar tuner
Tab Pro tools
  • play this tab
  • loop segment
  • change instrument
  • show fretboard
  • metronome
×
Best way to learn
"Underneath The Sycamore"
Autoscroll
slow
fast
+/-
esc
set tempo
stop
Contributor
Difficulty
novice
Underneath The Sycamore Bass Tab:

Intro: *No Bass*

First/Second Verse: (Eight Notes)
G----------------------------------------------------------------------------|
D-15-15-15-15-15-15-15-15-14-10-10-10-10-10-10-10-10/12-12-12-12-12-12-12----|
A------------------------------------------------------------------------15--|
E----------------------------------------------------------------------------|

First/Second Verse Continued: (Eight Notes)

G----------------------|
D----------------------| Played 4 Times
A-12-12-12-12-12-12-12-|
E----------------------|

First Chorus: (Eight Notes)
G---------------------------------------------------------------|
D---------------------------------------------------------------| Played Twice
A-8-8-8-8-8-8-8-8-7---------------3-3-3-3-3-3-3-3-5-5-5-5-5-5-5-|
E-------------------5-5-5-5-5-5-5-------------------------------|

Verse Again (x4)

Second/Last Chorus Pt. 1: (Eight Notes)

G---------------------------------------------------------------|
D---------------------------------------------------------------| Played Twice
A-8-8-8-8-8-8-8-8-7---------------3-3-3-3-3-3-3-3-5-5-5-5-5-5-5-|
E-------------------5-5-5-5-5-5-5-------------------------------|


Second/Last Chorus Pt. 2: (Eight Notes)

G---------------------------------------------------------------|
D---------------------------------------------------------------| Played Twice
A-8-8-8-8-8-8-8-8-7-3-3-3-3-3-3-3/5-5-5-5-5-5-5-5---------------|
E-------------------------------------------------5-5-5-5-5-5-5-|

Bridge: (Rest for about 7 measures, Comes in around the end of the second time through 
the bridge, after the trumpet thing has come in)

Bridge Pt. 1: (Eight Notes)

G----------------------|
D-7-7-9-9-10-10-12-12--|
A----------------------|
E----------------------|

Bridge Pt. 2: (Eight notes...I think, with a few breaks)

G-------------------------------------------------------------------------|
D---------------------------------5-5-BREAK-5-5-2-2~7-7-9-9-10-10-12-12---|
A-5-5-BREAK-8-7-1/3-3-BREAK-8-7-1/----------------------------------------|
E-------------------------------------------------------------------------|

Bridge Pt. 3: (Same as Pt. 2, except for the first two notes)


G-------------------------------------------------------------------------|
D---------------------------------5-5-BREAK-5-5-2-2~7-7-9-9-10-10-12-12---|
A-----------8-7-1/3-3-BREAK-8-7-1/----------------------------------------|
E-5-5-BREAK---------------------------------------------------------------|

Short Interlude, then repeat Chorus 2
Enjoy!
comments
print report bad tab
1 comment total.
0 reply
Jcbrown29 wrote on October 28 2014, 03:24 pm

Pretty confusing, but i think it sounds right.

I want to post or [tab]
guest
You may want to rate the tab now too:
select rating
Please do not post tabs as comments. Select "correction" instead!