Oops, an error
Loading. Please wait.

We Looked Like Giants Tab

version 2
version 2

Acoustic

Whole song

Interactive

6,090 views 12 this week
no commentswrite comment
1 2 3 4 5
please rate
add to favorites
launch autoscroll
font size
0
reset
how to read this tab
guitar tuner
Autoscroll
slow
fast
+/-
esc
set tempo
stop
Help us to improve Ultimate-Guitar.com Take our survey!
×
Author
Capo
2nd fret
Capo on 2nd - All tabs relative to capo

INTRO

e|--------------------|
b|--------------------|
g|-------5-5-4p-0p----|
d|----2---------------|
a|-0------------------|   REPEAT TWICE
e|--------------------|


e|----------------------------------|
b|-------1-1-0p---------1-1-3-1-3---|
g|--------------0-------------------|
d|----2-----------------------------|
a|-3-----------------2--------------|
e|-----------------3----------------|

repeat intro riff twice then either play verse chords when drums come in
or you can continue playing the into riff until the verse

VERSE

Am
God bless the daylight, the sugary smell of springtime
C
Remembering when you were mine
G
In a still suburban town

Am
When every thursday I'd brave those mountain passes
C
And you'd skip your early classes
G
And we'd learn how our bodies worked.

e|--------------------|
b|--------------------|
g|-------5-5-4p-0p----|
d|----2---------------|
a|-0------------------|   REPEAT TWICE
e|--------------------|


e|----------------------------------|
b|-------1-1-0p---------1-1-3-1-3---|
g|--------------0-------------------|
d|----2-----------------------------|
a|-3-----------------2--------------|
e|-----------------3----------------|

Am
God damn the black night with all it's foul temptation
C
I become what I always hated
G
When I was with you then

Am
We looked like giants in the back of my grey subcompact
C
Fumbling to make contact
G
As the others slept inside

Am
And together there
Fmaj
In a shroud of frost, the mountain air
G
Began to pass from every pane of weathered glass
Am               Fmaj                        G       E
And I held you closer than anyone would ever get

e|--------------------|
b|--------------------|
g|-------5-5-4p-0p----|
d|----2---------------|
a|-0------------------|   REPEAT TWICE
e|--------------------|


e|----------------------------------|
b|-------1-1-0p---------1-1-3-1-3---|
g|--------------0-------------------|
d|----2-----------------------------|
a|-3-----------------2--------------|
e|-----------------3----------------|


Fmaj                G Fmaj
Do you remember the JAMC?
F                   G Fmaj
And reading aloud from magazines
Fmaj                               G Fmaj
I don't know about you but I swear on my name they could smell it on me
Fmaj                 G Fmaj
I've never been too good with secrets.
No...

(repeat G Fmaj progression)

OUTRO

e|------------------------------------------------------|
b|------------------------------------------------------|
g|------2------------------------2------------------2---|repeat
d|------3-------0-2h-0-----------3------------------3---|
a|---3--------2--------2-3h2p---3-------2--3-5----3-----|
e|-1--------3----------------1---------3--3-3---1-------|

continue outro progression to the end of the song

And together there
In a shroud of frost and mountain air
Began to pass through every pane of weathered glass
And I held you closer...
Suggest correction
What's this?
You can suggest a correction to this tab. Community and Mods will review your correction and vote to approve or reject it.
comments
We did not receive enough feedback on this tab! Please rate:
print report bad tab
1 2 3 4 5
guest
You may want to rate the tab now too:
select rating
Please do not post tabs as comments. Select "correction" instead!