Oops, an error
Loading. Please wait.

What Sarah Said Bass Tab

version 1
version 1

Whole song

Interactive

7,170 views 18 this week
5 commentsread comments
1 2 3 4 5
excellent!
x 13
add to favorites
launch autoscroll
font size
0
reset
guitar tuner
Tab Pro tools
  • play this tab
  • loop segment
  • change instrument
  • show fretboard
  • metronome
Autoscroll
slow
fast
+/-
esc
set tempo
stop
Contributor
Difficulty
novice
Great song! But I noticed that no one has tabbed it for bass so I decided to do it...

PS: Rate please!

Alrighty pretty easy to play;

Piano Intro
0:16
G|-------------|---------------------------|
D|-------------|-----------9-10------------|2nd Bar
A|12~----------|8888~--10~------12~--------|x2
E|-------12~---|----------------------12~--|

Verse
0:45
G|--------------------|
D|--------------------|
A|8~---10~---12~------|
E|-----------------12~|

At 1:07 the piano comes in and you go;
G|-------------------------|
D|------------9-10---------|
A|8888~---10~-----12~------|x8
E|----------------------12~|

At 2:30 you like as follows...
G|--------------------------------|
D|--------------------------------|
A|5-5-5-5-3-3-3-3-----------------|x3
E|-----------------5-5-5-5-0-0-0-0|

At 3:04...
G|-------------|
D|-------------|
A|5-5-5-5/8~---|
E|-------------|

Technically that's it for the bass but if you want to, at 3:24 you play the following 
the very end...
G|-----------------------|
D|-----------------------|
A|8~---10~---12~---------|
E|-----------------12~---|

Aight thats it, pretty sure everythings correct
ENJOY
comments
print report bad tab
5 comments total. Showing first comments.
0 reply
theantonym wrote on September 6 2007, 03:57 pm

it works

-1 reply
dreadnaught_9 wrote on May 8 2008, 12:39 pm

*monacles* indeed it does. O.-

0 reply
chrisjenks wrote on August 12 2008, 11:28 am

nice job!

I want to post or [tab]
guest
You may want to rate the tab now too:
select rating
Please do not post tabs as comments. Select "correction" instead!