Oops, an error
Loading. Please wait.

What Sarah Said Bass Tab

version 2
version 2

Whole song

Interactive

444 views 1 this week
no commentswrite comment
1 2 3 4 5
please rate
add to favorites
launch autoscroll
font size
0
reset
guitar tuner
Autoscroll
slow
fast
+/-
esc
set tempo
stop
Help us to improve Ultimate-Guitar.com Take our survey!
×
Difficulty
intermediate
Piano Intro 0:16
G|-------------|---------------------------|
D|-------------|-----------9-10------------|2nd Bar
A|12~---5~-----|8888~--10~------12~---5~---|x2
E|-------------|---------------------------|

Verse 0:45

G|---------------------|
D|---------------------|
A|8~---10~---12~---5~--|
E|---------------------|

At 1:07 the piano comes in and you go;

G|-------------------------|
D|------------9-10---------|
A|8888~---10~-----12~----5~|x8
E|-------------------------|

At 2:30 you like as follows...
G|--------------------------------|
D|--------------------------------|
A|5-5-5-5-3-3-3-3-----------------|x3
E|-----------------5-5-5-5-0-0-0-0|

At 3:04...
G|-------------|
D|-------------|
A|5-5-5-5/8~---|
E|-------------|


Tab created by: Wuelverine.

Email me with questions on Wuelverine@hotmail.com
Suggest correction
What's this?
You can suggest a correction to this tab. Community and Mods will review your correction and vote to approve or reject it.
comments
We did not receive enough feedback on this tab! Please rate:
print report bad tab
1 2 3 4 5
guest
You may want to rate the tab now too:
select rating
Please do not post tabs as comments. Select "correction" instead!