Oops, an error
Loading. Please wait.

What Sarah Said Tab

version 2
version 2

Whole song

Interactive

14,072 views 3 this week
3 commentsread comments
1 2 3 4 5
x 4
add to favorites
×
Save as Personal and add changes to this tab that will be seen only by you. Learn more ›
×
You can save this tab as Personal to edit and correct it or add notes. All changes will be seen only by you. Learn more »
save as personal
new!
launch autoscroll
font size
0
reset
how to read this tab
guitar tuner
Autoscroll
slow
fast
+/-
esc
set tempo
stop
Death Cab For Cutie - "What Sarah Said"
Plans

this song is amazing yet apparently no one with ears has tried tabbing it.
please oh please transcribe this into piano yourself, its incredibly easy 
and so rewarding, even if you dont play piano

standard tuning

e|--------12-------12-------12-------12----------------------------|
B|------8--------8--------8--------8-------------------------------|
G|---10-------10-------10-------10---------------------------------|
D|-----------------------------------------------------------------|
A|-----------------------------------------------------------------|
E|-----------------------------------------------------------------|

e|--------10-------10-------10-------10----------------------------|
B|------8--------8--------8--------8-------------------------------|
G|----9--------9--------9--------9---------------------------------|
D|-----------------------------------------------------------------|
A|-----------------------------------------------------------------|
E|-----------------------------------------------------------------|

e|--------8--------8--------8--------8-----------------------------|
B|------8--------8--------8--------8-------------------------------|
G|----7--------7--------7--------7---------------------------------|
D|-----------------------------------------------------------------|
A|-----------------------------------------------------------------|
E|-----------------------------------------------------------------|

e|--------7--------6--------7--------6-----------------------------|
B|------7--------7--------7--------7-------------------------------|
G|----5--------5--------5--------5---------------------------------|
D|-----------------------------------------------------------------|
A|-----------------------------------------------------------------|
E|-----------------------------------------------------------------|

do that a few times then the guitar comes in...

   F          G         Am          C

e|---1----------3----------0----------0----------------------------|
B|---1----------3----------1----------1----------------------------|
G|---2----------0----------2----------0----------------------------|
D|---3----------0----------2----------2----------------------------|
A|---3----------2----------0----------3----------------------------|
E|---1----------3--------------------------------------------------|

(you could barre all those but i think they sound better open)



then it repeats all that forever with the FGBCAG bass line over and over
it does have some chorus or bridge or something different but you can go
figure it out if its that important
Suggest correction
comments
print report bad tab
3 comments total.
0 reply
no motiv 72 Feb 21, 2006 11:23 AM

meh

+4 reply
Talflick 496 Jan 05, 2007 09:38 AM

amazing job of the intro... change the 10-8-12 chord to something better though.... its hard to do the four fret stretch sometimes
but you got the last one in the intro wrong
it should go
e|----12----12(2x)----10----10(2x)----8----8(2x)----8----7(2x)---|
b|---8-----8---------8-----8---------8----8--------5----5--------|
g|--10---10---------9-----9---------7----7--------5----5---------|

0 reply
Talflick 496 Jan 05, 2007 09:38 AM

and make sure it say LET RING

guest
Wanna post a correction for this tab? Suggest correction