Oops, an error
Loading. Please wait.

What Sarah Said Tab

version 3
version 3

Whole song

Interactive

22,283 views 9 this week
2 commentsread comments
1 2 3 4 5
accurate
x 4
add to favorites
launch autoscroll
font size
0
reset
how to read this tab
guitar tuner
Tab Pro tools
  • play this tab
  • loop segment
  • change instrument
  • show fretboard
  • metronome
×
Best way to learn
"What Sarah Said"
Autoscroll
slow
fast
+/-
esc
set tempo
stop
Contributor
Taken from the video from mikesmai on youtube
Thanks a lot man! Anyway if you watched it an just need to look at the tabs without 
to pause and unpause the video here
are:

Piano Intro:
E:-----12-------12----| (2x)
B:---8--------8-------|
G:10-------10---------|
D:--------------------|
A:--------------------|
E:--------------------|

E:----10------10------| (2x)
B:--8-------8---------|
G:9-------9-----------|
D:--------------------|
A:--------------------|
E:--------------------|

E:----10------10------| (2x)
B:--8-------8---------|
G:9-------9-----------|
D:--------------------|
A:--------------------|
E:--------------------|

E:----8------8--------| (2x)
B:--8------8----------|
G:7------7------------|
D:--------------------|
A:--------------------|
E:--------------------|

E:----8------7--------| (2x)
B:--8------8----------|
G:5------5------------|
D:--------------------|
A:--------------------|
E:--------------------|

Guitar Intro:

E:--------------------| (2x)
B:----5-----5---------|
G:--0-----0-----------|
D:3-----3-------------|
A:--------------------|
E:--------------------|

E:--------------------| (2x)
B:----3-----3---------|
G:--0-----0-----------|
D:2-----2-------------|
A:--------------------|
E:--------------------|

E:--------------------| (2x)
B:----1-----1---------|
G:--0-----0-----------|
D:0-----0-------------|
A:--------------------|
E:--------------------|

E:--------------------| (2x)
B:----1-----1---------|
G:--0-----0-----------|
D:--------------------|
A:3-----3-------------|
E:--------------------|

E:--------------------| (2x)
B:----5-----5---------|
G:--0-----0-----------|
D:3-----3-------------|
A:--------------------|
E:--------------------|

E:--------------------| (2x)
B:----3-----3---------|
G:--0-----0-----------|
D:2-----2-------------|
A:--------------------|
E:--------------------|

E:--------------------| (2x)
B:----1-----1---------|
G:--0-----0-----------|
D:0-----0-------------|
A:--------------------|
E:--------------------|

E:--------------------| (2x)
B:----1-----0---------|
G:--0-----0-----------|
D:--------------------|
A:3-----3-------------|
E:--------------------|

Verse:
  F  E  D  C
E:3--3--3--3----------|
B:1--1--1--1----------|
G:2--0--0--0----------|
D:3--2--0--2----------|
A:---------3----------|
E:--------------------|

Bridge:
  Dm F  Am Em
E:1--1--0--0----------|
B:2--1--1--0----------|
G:3--2--2--0----------|
D:0--3--2--2----------|
A:---3--0--2----------|
E:---1-----0----------|

End:

E:1-------------------|
B:2---9-7-8-6-5-------|
G:3-------------------|
D:0-------------------|
A:--------------------|
E:--------------------|

Interlude:

E:3---3---------------|
B:1---1-1-1-1-1.......|
G:2---0---------------|
D:3---2---------------|
A:--------------------|
E:--------------------|
comments
print report bad tab
2 comments total.
0 reply
bassesrfun wrote on January 29 2009, 02:49 pm

The Dm in the bridge should be

Dm
E:1----|
B:3----|
G:2----|
D:0----|
A:-----|
E:-----|

He posted it wrong in the video.

+1 reply
zaka wrote on February 4 2009, 06:31 am

If anyone is wondering how to do those few little notes in the background of the intro on the guitar, that are higher pitched:

E:-----0--1----------------0---------------|
B:-1-1------1----------1-1---3-1-----------|
G:-----------------------------------------|
D:-----------------------------------------|
A:-----------------------------------------|
E:-----------------------------------------|


Or for a slightly higher pitch, to match the song a bit more:

E:-----------------------------------------|
B:-----5-6-------------------5-------------|
G:-5-5-----5-------------5-5---7-5---------|
D:-----------------------------------------|
A:-----------------------------------------|
E:-----------------------------------------|

I want to post or [tab]
guest
You may want to rate the tab now too:
select rating
Please do not post tabs as comments. Select "correction" instead!