Oops, an error
Loading. Please wait.

What Sarah Said tab

version 4
version 4

Whole song

Interactive

268 views 6 this week
no commentswrite comment
1 2 3 4 5
2 more votes to show rating
add to favorites
×
Save as Personal and add changes to this tab that will be seen only by you. Learn more ›
×
You can save this tab as Personal to edit and correct it or add notes. All changes will be seen only by you. Learn more »
launch autoscroll
font size
0
reset
how to read this tab
guitar tuner
edit
Autoscroll
slow
fast
+/-
esc
set tempo
stop
Difficulty
intermediate
Tabbed by: Juddson

Here is the tab in action. I actually capo up to the 5th fret to fit my vocals, but it can be played without. 
https://www.youtube.com/watch?v=3PaBOCLLUJc


Main Verse: F - G - Am - C


   F                       G                       Am                      C
e|-----0-----0-----0-----0---------------------------------------------------------------------------------
B|-----------------------------3-----3-----3-----3-----1-----1-----1-----1-----1-----0-----1-----0---------
G|---2-----2-----2-----2-----4-----4-----4-----4-----0-----0-----0-----0-----0-----0-----0-----0-----------
D|-3-----3-----3-----3-----5-----5-----5-----5-------------------------------------------------------------
A|-------------------------------------------------0-----0-----0-----0-----3-----3-----3-----3-------------
E|---------------------------------------------------------------------------------------------------------

And it came to me then that every plan is a tiny prayer to father time
As I stared at my shoes in the ICU that reeked of piss and 409
And I rationed my breaths as I said to myself that I'd already taken too much today
As each descending peak on the LCD took you a little farther away from me
Away from me

Amongst the vending machines and year-old magazines in a place where we only say goodbye
It stung like a violent wind that our memories depend on a faulty camera in our minds
But I knew that you were a truth I would rather lose than to have never lain beside at all
And I looked around at all the eyes on the ground as the TV entertained itself

Interlude: Dm - F - Am - G

    Dm                      F                       Am                      G

e|--------0-----1-----3-----0-----1-----3-----5-----------------------------3-----3-----3-----3-------
B|--3---3-----3-----3-----3-----1-----1-----1-----1-1---1-1---1-1---1-1---1-----0-----0-----0-----0---
G|----2-----2-----2-----2-----2-----2-----2-----2-----2-----2-----2-----2-----0-----0-----0-----0-----
D|--0-----0-----0-----0-----3-----3-----3-----3-------------------------------------------------------
A|--------------------------------------------------0-----0-----0-----0-------------------------------
E|--------------------------------------------------------------------------3-----3-----3-----3-------

'Cause there's no comfort in the waiting room
Just nervous pacers bracing for bad news
And then the nurse comes round and everyone will lift their heads
But I'm thinking of what Sarah said that "Love is watching someone die"

So who's going to watch you die?..

            
            
Suggest correction
Creating personal tab
Creating personal tab
You can edit any tab online and save it as your Personal.

You can edit, replace or remove any tab part or add personal notes – all changes will be seen only by you.

Personal tabs can be accessed anytime from any device, even offline.
Learn more »
Give kudos to tab author, rate the tab!
1 2 3 4 5
comments
print report bad tab
guest
Wanna post a correction for this tab? Suggest correction