Oops, an error
Loading. Please wait.

You Are A Tourist Tab

version 1
version 1

Acoustic

Whole song

Interactive

2,632 views 1 this week
no commentswrite comment
1 2 3 4 5
please rate
add to favorites
launch autoscroll
font size
0
reset
how to read this tab
guitar tuner
Autoscroll
slow
fast
+/-
esc
set tempo
stop
Help us to improve Ultimate-Guitar.com Take our survey!
×
Author
Difficulty
novice
Death Cab For Cutie = Awesome band! 
You Are A Tourist = Awesome song! 

Here's to all the acoustic fans! 
Any corrections let me know; rate and comment!

Artist: Death Cab for Cutie
Song: You Are A Tourist (Acoustic)
Album: Codes and Keys
Tuning: Standard

/ = slide up
\ = slide down
b = bend
v = vibrato

Intro/Main Riff

e |---------------------------------------------------------------|
B |----------bv12---10--------------------------------------------|
G |----11---------------11---9------9-9-9-9-9---11-11-11-11-11\5--|(x3)
D |-12----------------------------12------------------------------|
A |---------------------------------------------------------------| 	
E |---------------------------------------------------------------|

e |------------------------------------------------------------------|
B |-------------bv12---10--------------------------------------------|
G |------11---------------11---9-------9-9-9-9-9----6-6-6-6-6-6-6\---|
D |--12----------------------------12--------------------------------|
A |------------------------------------------------------------------| 	
E |------------------------------------------------------------------|

Verse 1

When there's a burning in your heart 
An endless fury in your heart 
Build it bigger than the Sun 
Let it grow 
Let it grow 
And there's a burning in your heart 
Don't be alarmed

Main Riff

e |---------------------------------------------------------------|
B |----------bv12---10--------------------------------------------|
G |----11---------------11---9------9-9-9-9-9---11-11-11-11-11\5--|
D |-12----------------------------12------------------------------|
A |---------------------------------------------------------------| 	
E |---------------------------------------------------------------|

e |------------------------------------------------------------------|
B |-------------bv12---10--------------------------------------------|
G |------11---------------11---9-------9-9-9-9-9----6-6-6-6-6-6-6\---|
D |--12----------------------------12--------------------------------|
A |------------------------------------------------------------------| 	
E |------------------------------------------------------------------|

This...Fire...Grows...Higher

Verse 2

When there's a doubt in your mind 
'Cos you think it all the time 
Framin' rights into wrongs 
Move along 
Move along 
When there's a doubt in your mind

e |--------------------------|
B |-----10----------10-------|
G |--11----11---11-----------|
D |--------------------------|
A |--------------------------| 	
E |--------------------------|

When there's a burning in your heart 
And you think it'll burst apart 
Oh, there's nothing to fear 
Save the tears 
Save the tears

Bridge

e |----------------------|
B |---------10----8------|
G |------7---------------|
D |---0------------------|
A |----------------------| 	
E |----------------------|

And if you feel just like a tourist in the city you were born 
Then, it's time to go 
And you find your destination with so many different places to call home 

e |----------------------|
B |----------8-----------|
G |------7------7--------|
D |---0------------------|
A |----------------------| 	
E |----------------------|

Cos' when you find yourself a villain, 

e |----------------------|
B |----------8-----------|
G |------7---------------|
D |---0------------------|
A |----------------------| 	
E |----------------------|

In the story you have written 
It's plain to see 
That sometimes the best intentions 
Are in need of redemptions 
Would you agree 
If so, please show me 

Main Riff

e |------------------------------------------------------------------|
B |-------------bv12---10--------------------------------------------|
G |------11---------------11---9------9-9-9-9-9---11-11-11-11-11\5---| 
D |--12----------------------------12--------------------------------|
A |------------------------------------------------------------------| 	
E |------------------------------------------------------------------|

e |------------------------------------------------------------------|
B |-------------bv12---10--------------------------------------------|
G |------11---------------11---9-------9-9-9-9-9----6-6-6-6-6-6-6\---|
D |--12----------------------------12--------------------------------|
A |------------------------------------------------------------------| 	
E |------------------------------------------------------------------|

When there’s a burning in your heart
This... Fire... Grows... Higher...

When there's a burning in your heart

e |---------------7-----12---10---|
B |-------10---7-----7------------|
G |----7--------------------------|
D |--0----------------------------|
A |-------------------------------| 	
E |-------------------------------| 

When there's a burning in your heart

Main Riff

e |---------------------------------------------------------------|
B |----------bv12---10--------------------------------------------|
G |----11---------------11---9------9-9-9-9-9---11-11-11-11-11\5--|(x3)
D |-12----------------------------12------------------------------|
A |---------------------------------------------------------------| 	
E |---------------------------------------------------------------|

e |------------------------------------------------------------------|
B |-------------bv12---10--------------------------------------------|
G |------11---------------11---9-------9-9-9-9-9----6-6-6-6-6-6-6\---|
D |--12----------------------------12--------------------------------|
A |------------------------------------------------------------------| 	
E |------------------------------------------------------------------|

This... Fire... Grows... Higher... 
When there's a burning in your heart
This... Fire... Grows... Higher... 
When there's a burning in your heart

Outro/Main Riff

e |---------------------------------------------------------------|
B |----------bv12---10--------------------------------------------|
G |----11---------------11---9------9-9-9-9-9---11-11-11-11-11\5--|(x3)
D |-12----------------------------12------------------------------|
A |---------------------------------------------------------------| 	
E |---------------------------------------------------------------|

e |------------------------------------------------------------------|
B |-------------bv12---10--------------------------------------------|
G |------11---------------11---9-------9-9-9-9-9----6-6-6-6-6-6-6\---|
D |--12----------------------------12--------------------------------|
A |------------------------------------------------------------------| 	
E |------------------------------------------------------------------|

This fire grows higher
When there's a burning in your heart

e |---------------------------------------------------------------|
B |----------bv12---10--------------------------------------------|
G |----11---------------11---9------9-9-9-9-9---11-11-11-11-11\5--|
D |-12----------------------------12------------------------------|
A |---------------------------------------------------------------| 	
E |---------------------------------------------------------------|

e |------------------------|
B |------------------------|
G |---5-7------------------|
D |----------12------------|
A |------------------------| 	
E |------------------------|
Suggest correction
What's this?
You can suggest a correction to this tab. Community and Mods will review your correction and vote to approve or reject it.
comments
We did not receive enough feedback on this tab! Please rate:
print report bad tab
1 2 3 4 5
guest
You may want to rate the tab now too:
select rating
Please do not post tabs as comments. Select "correction" instead!