Oops, an error
Loading. Please wait.

You Are A Tourist Bass Tab

version 2
version 2

Whole song

Interactive

4,707 views 9 this week
no commentswrite comment
1 2 3 4 5
excellent!
x 5
add to favorites
launch autoscroll
font size
0
reset
guitar tuner
Tab Pro tools
  • play this tab
  • loop segment
  • change instrument
  • show fretboard
  • metronome
×
Best way to learn
"You Are A Tourist"
Autoscroll
slow
fast
+/-
esc
set tempo
stop
Contributor
Difficulty
novice
-------------------------------------------------------------------------------
		                       YOU ARE A TOURIST - Death Cab For Cutie
-------------------------------------------------------------------------------

From the album Codes And Keys (2011)

Standard Tuning EADG

Pretty simple, repetitive bassline so have some fun with it
Try out some different timings for the notes too near the end.
Have fun!

Main Riff:
G|---------------------------------------------------------------------------|
D|---------------------------------------------------------------------------|
A|-/5--5-5-5--5-5-5--5-5-5--5--10--10-10-10--10-10-10--10-10-10--10\---------|
E|---------------------------------------------------------------------------|

G|---------------------------------------------------------------------------|
D|---------------------------------------------------------------------------|
A|-5--5-5-5--5-5-5--5-5-5--7--2--2-2-2--2-2/7--7-7-7--7\---------------------|
E|---------------------------------------------------------------------------|

G|---------------------------------------------------------------------------|
D|---------------------------------------------------------------------------|
A|-5--5-5-5--5-5-5--5-5-5--5--10--10-10-10--10-10-10--10-10-10--10\----------|
E|---------------------------------------------------------------------------|

G|---------------------------------------------------------------------------|
D|---------------------------------------------------------------------------|
A|-5--5-5-5--5-5-5--5-5-5--7--2--2-2-2--2-2----------------------------------|
E|------------------------------------------3--3-3-3--3----------------------|

Bridge:

G|---------------------------------------------------------------------------|
D|---------------------------------------------------------------------------|
A|---------------------------------------------------------------------------|
E|-0--0-0-0--0-0-0--0-0-0--0-0-0--0-0-0--0-0-0--0-0-0--0-0/3-----------------|

G|---------------------------------------------------------------------------|
D|---------------------------------------------------------------------------|
A|---------------------------------------------------------------------------|
E|-3--3-3-3--3-3-3--3-3-3--3-3-3--3-3-3--3-3-3--3-3-3--3-3\0-----------------| x4


| /  slide up
| \  slide down
| h  hammer-on
| p  pull-off
| ~  vibrato
| +  harmonic
| x  Mute note
===============================================================================
comments
print report bad tab
I want to post or [tab]
guest
You may want to rate the tab now too:
select rating
Please do not post tabs as comments. Select "correction" instead!