Oops, an error
Loading. Please wait.

Your Bruise Tab

version 2
version 2

Whole song

Interactive

4,560 views 7 this week
1 commentread comment
1 2 3 4 5
excellent!
x 4
add to favorites
launch autoscroll
font size
0
reset
how to read this tab
guitar tuner
Tab Pro tools
  • play this tab
  • loop segment
  • change instrument
  • show fretboard
  • metronome
×
Best way to learn
"Your Bruise"
Autoscroll
slow
fast
+/-
esc
set tempo
stop
Contributor
-------------------------------------------------------------------------------
                             YOUR BRUISE - Death Cab for Cutie
-------------------------------------------------------------------------------
Tabbed by: A.J. Conner
Email: ajconner123@gmail.com

Tuning: Standard

Intro/Outro
  Guitar 1:
e|--------0--------0---------------------0--------0--------------------------|
B|-----7--------7--------7--7---------7--------7--------7--7-----------------|
G|--8--------8--------8-----8------8--------8--------8-----8-----------------|
D|--6--------6--------6-----9------6--------6--------6-----9-----------------|
A|--------------------------7------------------------------x-----------------|
E|--------------------------0------------------------------7-----------------|
  
  Guitar 2: (Optional, I've only heard this part live, it's a harmony to the above)
e|---------------------------------------------------------------------------|
B|-----12---------11-------------9---------12---------11---------------------|
G|---------11------------11--------------------11------------11-----11-------|
D|--9----------9------9------9----------9----------9------9------9-----------|
A|---------------------------------------------------------------------------|
E|---------------------------------------------------------------------------|

Pre-Verse
  Guitar 1: (Repeat)
e|-----------------------------0---0-0---------------------------------------|
B|--------0--------------0-----4/5-5-4-0-0-0-0-------------------------------|
G|-----8-----8--------8----------------4-4-4/8-------------------------------|
D|--6--------------6---------------------------------------------------------|
A|--------------9------------------------------------------------------------|
E|---------------------------------------------------------------------------|
  
  Guitar 2:
e|---------------------------------------------------------------------------|
B|----7---------7-0-------5-5-4--9-9------7---------7-0-------5-5-4----------|
G|------8-----8----------------------8------8-----8-----------------4-4/6-4--|
D|--6-----6-9---------------------------6-----6-9----------------------------|
A|---------------------------------------------------------------------------|
E|-------------------0-0---------------------------------0-0-----------------|

Oh, and if you want to be blown away by another beautiful harmony, play this
along with Guitar 1 as an option to playing what's tabbed for Guitar 2:
e|------------------------2/4-4-2--------------------------------------------|
B|-----7-4-7------7-4-------------4-4-4/7------------------------------------|
G|--4--------4-4-------------------------------------------------------------|
D|---------------------------------------------------------------------------|
A|---------------------------------------------------------------------------|
E|---------------------------------------------------------------------------|


Verse (GUITAR 1 PLAYS INTRO RIFF)
  Guitar 2:
e|---------------------------------------------------------------------------|
B|---------------------------------------------------------------------------|
G|---------------------------------------------------------------------------|
D|---------------------------------------------------------------------------|
A|------6---9-9-7-6-6/7-7-7-6-6-4-4-------6---9-9-7-6-6\-2-2-4-4-6-6---------|
E|--4-4---7-------------------------7-4-4---7--------------------------------|

Chorus
  Both Guitars:
e|--0-0-0-0-0-0-0-0----------------------------------------------------------|
B|--0-0-0-0-0-0-0-0----------------0-0-0-0-0-0-0-0--8-8-10-10-8-8------------|
G|--4-4-4-4-4-4-4-4--6-6-8-8-11-11-6-6-6-6-6-6-6-6--9-9--x--x-7-7------------|
D|--2-2-2-2-2-2-2-2--X-X-X-X-X--X--7-7-7-7-7-7-7-7--9-9--9--9-9-9------------|
A|--0-0-0-0-0-0-0-0--4-4-6-6-9--9--7-7-7-7-7-7-7-7--7-7--7--7-7-7------------|
E|---------------------------------5-5-5-5-5-5-5-5---------------------------|


Song Order:

Intro - 4x
Pre-verse - 2x
Verse - 4x
Chorus - 2x
Pre-verse - 2x
Chorus - 4x
Outro - 2x

Enjoy, a correct version needed posted, so here you go :]


| /  slide up
| \  slide down
| h  hammer-on
| p  pull-off
| ~  vibrato
| +  harmonic
| x  Mute note
===============================================================================
comments
print report bad tab
1 comment total.
0 reply
Co&Ca11 wrote on August 28 2010, 12:07 am

perfect, nice additional harmony too.

I want to post or [tab]
guest
You may want to rate the tab now too:
select rating
Please do not post tabs as comments. Select "correction" instead!