Oops, an error
Loading. Please wait.

Your Heart Is An Empty Room Bass Tab

version 1
version 1

Whole song

Interactive

1,179 views 3 this week
no commentswrite comment
1 2 3 4 5
please rate
add to favorites
launch autoscroll
font size
0
reset
guitar tuner
Tab Pro tools
  • play this tab
  • loop segment
  • change instrument
  • show fretboard
  • metronome
Autoscroll
slow
fast
+/-
esc
set tempo
stop
Contributor
Difficulty
novice
This is my first tab so any comments or suggestions email me them at aliebman2@yahoo.com  

Standard tuning
4/4
For changing frets always slide except to and from the open strings

Intro
|-----------------|
|-----------------|
|-3-3-3-3-3-3-3-3-|
|-----------------|

Riff 1
|-----------------|-----------------|-----------------|-----------------|
|-----------------|-----------------|-----------------|-----------------|
|-3-3-3-3-3-3-3-3-|-7-7-7-7-7-7-7-7-|-0-0-0-0-7-7-7-7-|-8-8-8-8-8-8-8-8-| X 2
|-----------------|-----------------|-----------------|-----------------|

Riff 2
|-----------------|-----------------|
|-----------------|-----------------|
|-0-0-0-0-7-7-7-7-|-8-8-8-8-8-8-8-8-|
|-----------------|-----------------|

Riff 3
|-----------------|-----------------|-----------------|-----------------|
|-----------------|-----------------|-----------------|-----------------|
|-3-3-3-3-3-3-3-3-|-8-7-7-7-7-7-7-7-|-3-3-3-3-3-3-3-3-|-7-7-7-7-7-7-7-7-| 
|-----------------|-----------------|-----------------|-----------------|

Bridge
|-----------------|-----------------|-----------------|-----------------|
|-----------------|-----------------|-----------------|-----------------|
|-3----7--3----0--|-7----8--3----0--|-0----3--7----8--|-8----7--3----0--| 
|-----------------|-----------------|-----------------|-----------------|


Order
-----
Intro X 4
Riff 1
Riff 2
Intro X 2
Riff 1 
Riff 2 X 3
Riff 3 & 2 X 2 (That means Riff 3 then Riff 2 and then repeat them both)
Bridge
Riff 1
Riff 2 X 3
Riff 3 & 2 X 4
 
Then 
|-----------------|
|-----------------|
|-3~~~~~~---------|Let it ring
|-----------------|

The song will continue but no more bass
comments
We did not receive enough feedback on this tab! Please rate:
print report bad tab
1 2 3 4 5
I want to post or [tab]
guest
You may want to rate the tab now too:
select rating
Please do not post tabs as comments. Select "correction" instead!