Oops, an error
Loading. Please wait.

Your Heart Is An Empty Room Bass Tab

version 2
version 2

Whole song

Interactive

4,420 views 1 this week
1 commentread comment
1 2 3 4 5
1 last vote to show rating
add to favorites
launch autoscroll
font size
0
reset
guitar tuner
Autoscroll
slow
fast
+/-
esc
set tempo
stop
Help us to improve Ultimate-Guitar.com Take our survey!
×
Difficulty
novice
Death Cab For Cutie - Your Heart is An Empty Room

|-----------------|
|-----------------|
|-3-3-3-3-3-3-3-3-|
|-----------------|

|-----------------|
|-----------------|
|-3-3-3-3-3-3-3-3-|
|-----------------|

|-----------------|
|-----------------|
|-3-3-3-3-3-3-3-3-|
|-----------------|

|-----------------|
|-----------------|
|-3-3-3-3-3-3-3-3-|
|-----------------|

|-----------------|-----------------|-----------------|-----------------|
|-----------------|-----------------|-----------------|-----------------|
|-3-3-3-3-3-3-3-3-|-7-7-7-7-7-7-7-7-|-0-0-0-0-7-7-7-7-|-8-8-8-8-8-8-8-8-| X 2
|-----------------|-----------------|-----------------|-----------------|

|-----------------|-----------------|
|-----------------|-----------------|
|-0-0-0-0-7-7-7-7-|-8-8-8-8-8-8-8-8-|
|-----------------|-----------------|

|-----------------|
|-----------------|
|-3-3-3-3-3-3-3-3-|
|-----------------|

|-----------------|
|-----------------|
|-3-3-3-3-3-3-3-3-|
|-----------------|

|-----------------|-----------------|-----------------|-----------------|
|-----------------|-----------------|-----------------|-----------------|
|-3-3-3-3-3-3-3-3-|-7-7-7-7-7-7-7-7-|-0-0-0-0-7-7-7-7-|-8-8-8-8-8-8-8-8-| X 2
|-----------------|-----------------|-----------------|-----------------|

|-----------------|-----------------|
|-----------------|-----------------|
|-0-0-0-0-7-7-7-7-|-8-8-8-8-8-8-8-8-|
|-----------------|-----------------|

|-----------------|-----------------|
|-----------------|-----------------|
|-0-0-0-0-7-7-7-7-|-8-8-8-8-8-8-8-8-|
|-----------------|-----------------|

|-----------------|-----------------|
|-----------------|-----------------|
|-0-0-0-0-7-7-7-7-|-8-8-8-8-8-8-8-8-|
|-----------------|-----------------|

|-----------------|-----------------|-----------------|-----------------|
|-----------------|-----------------|-----------------|-----------------|
|-3-3-3-3-3-3-3-3-|-8-7-7-7-7-7-7-7-|-3-3-3-3-3-3-3-3-|-7-7-7-7-7-7-7-7-| 
|-----------------|-----------------|-----------------|-----------------|

|-----------------|-----------------|
|-----------------|-----------------|
|-0-0-0-0-7-7-7-7-|-8-8-8-8-8-8-8-8-|
|-----------------|-----------------|

|-----------------|-----------------|-----------------|-----------------|
|-----------------|-----------------|-----------------|-----------------|
|-3-3-3-3-3-3-3-3-|-8-7-7-7-7-7-7-7-|-3-3-3-3-3-3-3-3-|-7-7-7-7-7-7-7-7-| 
|-----------------|-----------------|-----------------|-----------------|

|-----------------|-----------------|
|-----------------|-----------------|
|-0-0-0-0-7-7-7-7-|-8-8-8-8-8-8-8-8-|
|-----------------|-----------------|

|-----------------|-----------------|-----------------|-----------------|
|-----------------|-----------------|-----------------|-----------------|
|-3----7--3----0--|-7----8--3----0--|-0----3--7----8--|-8----7--3----0--| 
|-----------------|-----------------|-----------------|-----------------|

|-----------------|-----------------|-----------------|-----------------|
|-----------------|-----------------|-----------------|-----------------|
|-3-3-3-3-3-3-3-3-|-7-7-7-7-7-7-7-7-|-0-0-0-0-7-7-7-7-|-8-8-8-8-8-8-8-8-| X 2
|-----------------|-----------------|-----------------|-----------------|

|-----------------|-----------------|
|-----------------|-----------------|
|-0-0-0-0-7-7-7-7-|-8-8-8-8-8-8-8-8-|
|-----------------|-----------------|

|-----------------|-----------------|
|-----------------|-----------------|
|-0-0-0-0-7-7-7-7-|-8-8-8-8-8-8-8-8-|
|-----------------|-----------------|

|-----------------|-----------------|
|-----------------|-----------------|
|-0-0-0-0-7-7-7-7-|-8-8-8-8-8-8-8-8-|
|-----------------|-----------------|

|-----------------|-----------------|-----------------|-----------------|
|-----------------|-----------------|-----------------|-----------------|
|-3-3-3-3-3-3-3-3-|-7-7-7-7-7-7-7-7-|-0-0-0-0-7-7-7-7-|-8-8-8-8-8-8-8-8-| X 2
|-----------------|-----------------|-----------------|-----------------|

|-----------------|-----------------|
|-----------------|-----------------|
|-0-0-0-0-7-7-7-7-|-8-8-8-8-8-8-8-8-|
|-----------------|-----------------|

|-----------------|-----------------|-----------------|-----------------|
|-----------------|-----------------|-----------------|-----------------|
|-3-3-3-3-3-3-3-3-|-7-7-7-7-7-7-7-7-|-0-0-0-0-7-7-7-7-|-8-8-8-8-8-8-8-8-| X 2
|-----------------|-----------------|-----------------|-----------------|

|-----------------|-----------------|
|-----------------|-----------------|
|-0-0-0-0-7-7-7-7-|-8-8-8-8-8-8-8-8-|
|-----------------|-----------------|

|-----------------|-----------------|-----------------|-----------------|
|-----------------|-----------------|-----------------|-----------------|
|-3-3-3-3-3-3-3-3-|-7-7-7-7-7-7-7-7-|-0-0-0-0-7-7-7-7-|-8-8-8-8-8-8-8-8-| X 2
|-----------------|-----------------|-----------------|-----------------|

|-----------------|-----------------|
|-----------------|-----------------|
|-0-0-0-0-7-7-7-7-|-8-8-8-8-8-8-8-8-|
|-----------------|-----------------|

|-----------------|-----------------|-----------------|-----------------|
|-----------------|-----------------|-----------------|-----------------|
|-3-3-3-3-3-3-3-3-|-7-7-7-7-7-7-7-7-|-0-0-0-0-7-7-7-7-|-8-8-8-8-8-8-8-8-| X 2
|-----------------|-----------------|-----------------|-----------------|

|-----------------|-----------------|
|-----------------|-----------------|
|-0-0-0-0-7-7-7-7-|-8-8-8-8-8-8-8-8-|
|-----------------|-----------------|
Suggest correction
Give kudos to tab author, rate the tab!
1 2 3 4 5
comments
print report bad tab
1 comment total.
0 reply
mrretard 30 Oct 31, 2007 05:11 PM

this tab sounds right it is just hard to follow because i lose my spot as i am playing. but oh well

guest
You may want to rate the tab now too:
select rating
Wanna post a correction for this tab? Suggest correction