Oops, an error
Loading. Please wait.

Your Heart Is An Empty Room Tab

version 2
version 2

Whole song

Interactive

4,172 views 3 this week
no commentswrite comment
1 2 3 4 5
please rate
add to favorites
launch autoscroll
font size
0
reset
how to read this tab
guitar tuner
Autoscroll
slow
fast
+/-
esc
set tempo
stop
Help us to improve Ultimate-Guitar.com Take our survey!
×
Author
Difficulty
novice
Tabbed By: John K
Email: Jwknov29@gmail.com

Tuning: Standard (EADGBe)

Intro:
--0--------|
--1--------|
--0--------|
--2--------|
--3--------|
-----------|

Verse:

--0------0--------------0----------3---------1-----------------|
--1------0--------------1----------3---------1-----------------|
--0------0--------------2----------0---------2-----------------|
--2------2--------------2----------0---------3-----------------|
--3------2--------------0----------2---------3-----------------|
---------0-------------------------3---------1-----------------|
Burn it down 'til the ember smoke on the ground. And
Start   new when your heart is an empty    room. With

--0--------3------1---------------------------------|
--1--------3------1---------------------------------|
--2--------0------2---------------------------------|
--2--------0------3---------------------------------|
--0--------2------3---------------------------------|
-----------3------1---------------------------------|

Walls of deepest blue

--0------0--------------0----------3---------1-----------------|
--1------0--------------1----------3---------1-----------------|
--0------0--------------2----------0---------2-----------------|
--2------2--------------2----------0---------3-----------------|
--3------2--------------0----------2---------3-----------------|
---------0-------------------------3---------1-----------------|
Home's  face: How it ages    when your     away
Spring  blooms, you  find out    love is   true. But you

--0--------3------1---------------------------------|
--1--------3------1---------------------------------|
--2--------0------2---------------------------------|
--2--------0------3---------------------------------|
--0--------2------3---------------------------------|
-----------3------1---------------------------------|

Don't know what to do. Cause the
Chase is all you know, and she
Stopped running months ago


Chorus:

--0------1----------------------------------|
--1------1----------------------------------|
--0------2----------------------------------|
--2------3----------------------------------|
--3------3----------------------------------|
---------1----------------------------------|
    And all you see
    Is  wher else you could

--0-------3---------1---------------------------|
--1-------3---------1---------------------------|
--2-------0---------2---------------------------|
--2-------0---------3---------------------------|
--0-------2---------3---------------------------|
----------3---------1---------------------------|
 Be when you're at home


Verse 3:

--0---------0--------------0-------------3---------1-----------------|
--1---------0--------------1-------------3---------1-----------------|
--0---------0--------------2-------------0---------2-----------------|
--2---------2--------------2-------------0---------3-----------------|
--3---------2--------------0-------------2---------3-----------------|
------------0----------------------------3---------1-----------------|
Flames and smoke         Climbed out of every window. And
 Dissapeared       With everything that you held dear. But you

--0----------3------1---------------------------------|
--1----------3------1---------------------------------|
--2----------0------2---------------------------------|
--2----------0------3---------------------------------|
--0----------2------3---------------------------------|
-------------3------1---------------------------------|

Shed not a single tear for the
Things you didn't need cause you
Knew..were finally free

[[Chorus]]

Elec. Guitar Riff:

---10----7-8---------------------------|
-8---10------(8)-----------------------|
---------------------------------------|
---------------------------------------|
---------------------------------------|
---------------------------------------|


(lyrics from sing365.com)

| /  slide up
| \  slide down
| h  hammer-on
| p  pull-off
| ~  vibrato
| +  harmonic
| x  Mute note
Suggest correction
Give kudos to tab author, rate the tab!
1 2 3 4 5
comments
print report bad tab
guest
You may want to rate the tab now too:
select rating
Please do not post tabs as comments. Select "correction" instead!