Oops, an error
Loading. Please wait.

Your New Twin Sized Bed Tab

version 1
version 1

Acoustic

  • Combines both original guitar bits into one to be played solo.

Whole song

136 views 1 this week
no commentswrite comment
1 2 3 4 5
3 more votes to show rating
add to favorites
launch autoscroll
font size
0
reset
how to read this tab
guitar tuner
Autoscroll
slow
fast
+/-
esc
set tempo
stop
Author
Difficulty
Tuning
Capo
intermediate
D A D G B E
1st fret
About this tab version
Combines both original guitar bits into one to be played solo. Was this info helpful? Yes No
All credit for tabbing goes to alertedeye for his video https://www.youtube.com/watch?v=Z7HLA-aMKWY
All I did was decipher his playing into a tablature. Refer to the video linked above for the rest
of the song. 

Chords for Intro and Verse:
004030
X07670
5X0450

[Intro]

e|--------------------------|
B|-----3---------2----------|
G|-------------------------4|
D|-4-----4-4\2-2---2-0------|
A|---------0-------0--------|
D|-0-0---0-----------2/5-5--|

[Verse]

e|-------5/7--------------------|
B|-----3-----------7\5-------5/3|
G|-------------6---------4------|
D|-4---------7---------0--------|
A|-----------0---0--------------|
D|-0-0-----------------5---5----|


****************
/   Slide up
\   Slide down
****************
Suggest correction
Give kudos to tab author, rate the tab!
1 2 3 4 5
comments
print report bad tab
guest
You may want to rate the tab now too:
select rating
Wanna post a correction for this tab? Suggest correction