Oops, an error
Loading. Please wait.

Your New Twin Sized Bed Bass Tab

version 1
version 1

Whole song

6,177 views 3 this week
2 commentsread comments
1 2 3 4 5
x 5
add to favorites
launch autoscroll
font size
0
reset
guitar tuner
Autoscroll
slow
fast
+/-
esc
set tempo
stop
Help us to improve Ultimate-Guitar.com Take our survey!
×
Author
Difficulty
intermediate
Title: Your New Twin Sized Bed
Artist: Death Cab for Cutie
Album: Narrow Stairs

I'm almost 100% positive this is correct. All the parts are here, you just gotta get em
order by listening to the song. Have fun! Email me at occfreak101@yahoo.com for
questions/comments.


Main Riff
G-----12---------------------------------------------------|
D-13-----13------15—12--------13-------13------------------|
A-------------13-----------11-----11-11----11--------------|
E----------------------------------------------------------|

Verse variation
G-----12---------------------------------------------------|
D-13-----13------15—12--------13-----15-13-12--------------|
A-------------13-----------11-----11-----------------------|
E----------------------------------------------------------|

Pre-Chorus
G-----------------------------------------------------------|
D---10-----10-------13--------13----------------------------|
A-8----8-8-----8/11-----11-11----11-------------------------|
E-----------------------------------------------------------|

Bridge
G------------------------------------------------------------------------|
D---------------8—6-6-6-6-6-6-6-8-10-10-10-10-10-10-10-10----------------|
A-6-6-6-6-6-6-6----------------------------------------------------------|
E------------------------------------------------------------------------|

G-----------------------------------------------------------------------|
D------------------8-8-8-8-8-8-8-8-10-10-10-10-10-10-10-10--------------|
A-6-6-6-6-6-6-6-6-------------------------------------------------------|
E-----------------------------------------------------------------------|

G-----------------------------------------------------------------------|
D------------------6-6-6-6-6~~~~----------------------------------------|
A-8-8-8-8-8-8-8-8-------------------------------------------------------|
E-----------------------------------------------------------------------|
Suggest correction
comments
print report bad tab
2 comments total.
0 reply
Cal! 501 Feb 11, 2009 04:23 PM

great tab! cudnt work this one out myself.

0 reply
SaintChris 123 Apr 26, 2009 01:51 PM

am I the only one who also hears a line going

G--12--12-----12\10-10-------------------------|
D---------13---------—-12--12/15-13--13--------|
A----------------------------------------------|
E----------------------------------------------|?

guest
You may want to rate the tab now too:
select rating
Wanna post a correction for this tab? Suggest correction