Oops, an error
Loading. Please wait.

Your New Twin Sized Bed Chords

version 2
version 2

Whole song

43,237 views 66 this week
11 commentsread comments
1 2 3 4 5
accurate
x 20
add to favorites
launch autoscroll
font size
0
reset
transpose
0
reset
display chords
guitar tuner
Tab Pro tools
  • play this tab
  • loop segment
  • change instrument
  • show fretboard
  • metronome
×
Best way to learn
"Your New Twin Sized Bed"
Autoscroll
slow
fast
+/-
esc
set tempo
stop
Contributor
Difficulty
Capo
intermediate
1st fret
-------------------------------------------------------------------------------
                             SONG NAME - Band Name
-------------------------------------------------------------------------------
Tabbed by: Thys R.
Email: looskuh@yahoo.com

Tuning: Standard, Capo on 1

"Your New Twin Sized Bed"

Returning theme, Gibbard plays this (counted without the capo)
e|---6-8---------------------------------------------------------------------|
B|----------8-------6--------------------------------------------------------|
G|8-5--------10--------------------------------------------------------------|
D|--------10-------8-8-------------------------------------------------------|
A|---------------------------------------------------------------------------|
E|---------------------------------------------------------------------------|

Chords are respective to the capo. If you want to play it without the capo, it would be
A#, G#, and Fm.

I'm still not really sure about that G# (G in the tabs). I play it with an extra D#.
Any suggestions?

D              A             G                             D, A, G
You look so defeated lying there in your new twin size bed
D              A           G                             D, A, G
With a single pillow underneath your single head
D             A                    G                                       D, A, G
   I guess you decided that that old queen was more space than you would need
D              A                 G                                        D, A, G
Now it's in the alley behind your apartment with a sign that says it's free
      Em                 G                  D, A, G
And I hope you have more luck with this than me

D              A           G                D, A, G
You used to think that someone would come along.
D              A           G                D, A, G
And lay beside you in a space that they belong.
D              A                 G                            D, A, G
But the other side of the mattress and box springs stayed like new.
   D              A                 G               D, A, G
'n what's the point of holding onto what never gets used?


Em                      G               D, A, G
Other than to sit and desire for self-abuse.


D               G                  D           A
And I try not to worry, but you've got me terrified
D                               G
It's like your in some kind of hurry
           Em           G            D, A, G
To say goodbye, say goodbye, say goodbye


D              A            G                             D, A, G
You look so defeated lying there in your new twin size bed
D              A            G                           D
You look so defeated lying there in your new twin size bed


[Thanks to Gabriel Arellano for part of the lyrics, SoccerEirich429 for some tips, and
Unregistered user for the chords)

Now who wants to tab the leading guitar, instead of the chords? :)
comments
print report bad tab
11 comments total. Showing first comments.
0 reply
arson_nick wrote on June 3 2008, 02:22 am

Returning riff should be more like

e|------6-/8--------------------------------------------------|
B|-----4------------8-\6------6-\4----------------------------|
G|(4)/5-----------10---------8--------------------------------|
D|------------9/10--------7/8---------------------------------|
A|------------------------------------------------------------|
E|------------------------------------------------------------|

0 reply
stoptraffic810 wrote on June 5 2008, 07:42 pm

You're right, it's supposed to be a D#; it's just down an octave. Here's how I played it:

e ---|---|---|---|---|
B ---|---|---|---|---|
G ---|---|---|---|---|
D ---|---|---|-x-|---|
A ---|---|---|---|-x-|
E ---|---|---|---|-x-|

Otherwise, really great tab.

0 reply
Solblixt wrote on June 10 2008, 12:14 pm

Chords are okay but the riff is way off. I think arson_nick's version sounds off as well

I want to post or [tab]
guest
You may want to rate the tab now too:
select rating
Please do not post tabs as comments. Select "correction" instead!