Oops, an error
Loading. Please wait.

Black History Month bass

version 4
version 4

Whole song

Interactive

3,942 views 3 this week
no commentswrite comment
1 2 3 4 5
x 3
add to favorites
×
Save as Personal and add changes to this tab that will be seen only by you. Learn more ›
×
You can save this tab as Personal to edit and correct it or add notes. All changes will be seen only by you. Learn more »
launch autoscroll
font size
0
reset
guitar tuner
edit
Autoscroll
slow
fast
+/-
esc
set tempo
stop
Author
Difficulty
I tabbed this song in standard tuning to save you the trouble of tuning down to Jesse's 
I am ABSOLUTELY positive that this tab is correct.

fairly easy

lots of distortion,

Intro/Verse Riff
G--------------------------10-10-10-10-10-10--|
D-----3h5-5-5-5-5-5-5-5-5---------------------|
A-3h5-----------------------------------------|
E---------------------------------------------|

G-------------------------10-10-10-10---------|
D-----3h5-5-5-5-5-5-5-5-5-------------8-8-8---|
A-3h5-----------------------------------------|
E---------------------------------------------|

G--------------------------10-10-10-10-10-10--|
D-----3h5-5-5-5-5-5-5-5-5---------------------|
A-3h5-----------------------------------------|
E---------------------------------------------|

G---------------------------8-8-8-8-8----------|
D-----3h5-5-5-5-5-5-5-5-5-------------10-10-10-|
A-3h5------------------------------------------|
E----------------------------------------------|

repeat this (^) whole segment for the verse(s)

1st Chorus Riff

"Hold on, hold on, children..."
G-----------------------------------------------------------|
D-5-5-5-5-5-5-5-7-3-3-3-3-3-3-3-5-1-1-1-1-1-1-1-3-----------|
A-------------------------------------------------3-3-3-3-3-|
E-----------------------------------------------------------|
"Your Mother and Father are leaving..."
G-------------------------------------------------------------------|
D-----3h5-5-5-5-5-5-5-5-7-3-3-3-3-3-3-3-3-5-1-1-1-1-1-1-1-3---------|
A-3h5-------------------------------------------------------3-3-3-3-|
E-------------------------------------------------------------------|

2nd Chorus Riff
G---------------7-7---------------5-5---------------3-3-------------|
D-5-5-5-5-5-5-5-----3-3-3-3-3-3-3-----1-1-1-1-1-1-1-----------------|
A---------------------------------------------------3-3-3-3-3-3-3---|
E-------------------------------------------------------------------|

G-----------------------7-7---------------5-5---------------3-3--------------|
D----3h5-5-5-5-5-5-5-5-----3-3-3-3-3-3-3-----1-1-1-1-1-1-1-------------------|
A-3h5-----------------------------------------------------------3-3-3-3-3-3--|
E----------------------------------------------------------------------------|

SONG ORDER

INTRO/VERSE RIFF
1ST CHORUS RIFF
INTRO/VERSE RIFF
1ST CHORUS RIFF
2ND CHORUS RIFF
INTRO/VERSE RIFF
1ST CHORUS RIFF<--
2ND CHORUS RIFF<--  THIS IS THE BUILD UP BIT AFTER THE SECOND CHORUS
1ST CHORUS RIFF<--
2ND CHORUS RIFF<--
VERSE/INTRO (PLAY QUIETLY)

GREAT song. I'm sure that this tab is correct so enjoy it!

            
            
Suggest correction
Creating personal tab
Creating personal tab
You can edit any tab online and save it as your Personal.

You can edit, replace or remove any tab part or add personal notes – all changes will be seen only by you.

Personal tabs can be accessed anytime from any device, even offline.
Learn more »
Give kudos to tab author, rate the tab!
1 2 3 4 5
comments
print report bad tab
guest
You may want to rate the tab now too:
select rating
Wanna post a correction for this tab? Suggest correction