Oops, an error
Loading. Please wait.

Blood On Our Hands bass

version 1
version 1

Interactive

5,501 views 6 this week
1 commentread comment
1 2 3 4 5
x 3
add to favorites
×
Save as Personal and add changes to this tab that will be seen only by you. Learn more ›
×
You can save this tab as Personal to edit and correct it or add notes. All changes will be seen only by you. Learn more »
launch autoscroll
font size
0
reset
guitar tuner
edit
Autoscroll
slow
fast
+/-
esc
set tempo
stop
Author
Blood on our Hands
Death From Above 1979
You're a Woman, I'm a Machine

Tabbed By: J-Son V-1 (Viva_La_Sperle@hotmail.com)

Tuning: Drop Whole Step - DGCF
Effects: Use of synth, mild distortions, heavy bass, and low flange
(I use a Digitech BP200 to create my DFA effects)


Part I
F|---------------------------------------------------------------------------|
C|-777-7-7-7--10-10-10-10-10—11-11—12-12-12----------------------------------|
G|---------------------------------------------------------------------------|
D|---------------------------------------------------------------------------|

Part II
F|------------17---16---14--16-----------------------------------------------|
C|--777-------------------------17-17---14-14--------------------------------|
G|---------------------------------------------------------------------------|
D|---------------------------------------------------------------------------|
   Da da da "there is blood on our-hands a-gain

F|--------------17---16---14-------------------------------------------------|
C|-10-10-10------------------------17-17---14-14-----------------------------|
G|----------------------------15---------------------------------------------|
D|---------------------------------------------------------------------------|
   Da da da    "From the bed-room is-where we-will"

Part III
F|---------------------------------------------------------------------------|
C|-9-9-9-9-9-9-9-9-9-9-9-9-9-11b---5-5-5-5-5-5-5-5-5-5-5-5-5-5-5-5-5-5-5-7-7-|
G|---------------------------------------------------------------------------|
D|---------------------------------------------------------------------------|
   B= drastic bend that makes the sound of another note

Part IV
F|-----10-----8--------------------------------------------------------------|
C|------------------12------10-----------12------10------8-----7-------------|
G|-8-8----8-8---8-8-----8-8-----------8-8-----8-8----8-8----8-8--------------|
D|---------------------------------------------------------------------------|
   1-2-3 1-2-3  1-2-3  1-2-3


Order
Past I x2
Part II x2
Part I x2
Part II x4
Part III x2
Part IV x2
Part I

Hopefully this makes it easy enough to figure out, but if you are having trouble feel free to E-mail me. 
==============================================================================

            
            
Suggest correction
Creating personal tab
Creating personal tab
You can edit any tab online and save it as your Personal.

You can edit, replace or remove any tab part or add personal notes – all changes will be seen only by you.

Personal tabs can be accessed anytime from any device, even offline.
Learn more »
Give kudos to tab author, rate the tab!
1 2 3 4 5
comments
print report bad tab
1 comment total.
0 reply
MCRrocks 35 Mar 25, 2005 07:00 PM

nice tab dude but your timings a little off on some parts. you wouldn't necessarily have to have it a whole step down you could just play everything 2 frets down.

guest
You may want to rate the tab now too:
select rating
Wanna post a correction for this tab? Suggest correction