Oops, an error
Loading. Please wait.

Blood On Our Hands bass

version 2
version 2

Interactive

13,028 views 6 this week
2 commentsread comments
1 2 3 4 5
x 13
add to favorites
×
Save as Personal and add changes to this tab that will be seen only by you. Learn more ›
×
You can save this tab as Personal to edit and correct it or add notes. All changes will be seen only by you. Learn more »
launch autoscroll
font size
0
reset
guitar tuner
edit
Autoscroll
slow
fast
+/-
esc
set tempo
stop
Author
Song: Blood On Our Hands
Band: Death From Above 1979
Album: You're A Woman, Im a Machine
Bassist: Jesse F. Keeler
Tabber: Ricardo P.

Regular Tuning  (E-A-D-G)


Symbols

/= slide down
h= hammer on
*= stacatto / accent note
p= pull off
//______\\= really fast., hear the song carefully to get the point.

intro/
Verse
                * * * * 
|---------------------------------------------------------|
|-5-5-5-5-5-/----------/7-7-7-7-7-/---7-8---10-10-10-10---| 
|---------------------------------------------------------|
|---------------3-3-3-3-----------------------------------|
                * * * *                                     
|------------------------------------------10-10-10-10---||
|-5-5-5-5-5-/----------/7-7-7-7-7-/---7-8-----------------|
|---------------------------------------------------------|
|---------------3-3-3-3-----------------------------------|
                * * * *

main riff/chorus

|-----------15-14-12-14--10-10h12p10-----------15-14-12---10-10h12p10----|
|-5-5-5-5-5--------------------------7-7-7-7-7---------------------------|
|------------------------------------------------------8-----------------|
|------------------------------------------------------------------------|x2

2nd verse
                * * * * 
|---------------------------------------------------------|
|-5-5-5-5-5-/----------/7-7-7-7-7-/---7-8---10-10-10-10---| 
|---------------------------------------------------------|
|---------------3-3-3-3-----------------------------------|
                * * * *
|------------------------------------------10-10-10-10---||
|-5-5-5-5-5-/----------/7-7-7-7-7-/---7-8-----------------|
|---------------------------------------------------------|
|---------------3-3-3-3-----------------------------------|
                * * * *
 
chorus
|-----------15-14-12-14--10-10h12p10-----------15-14-12---10-10h12p10----|
|-5-5-5-5-5--------------------------7-7-7-7-7---------------------------|
|------------------------------------------------------8-----------------|
|------------------------------------------------------------------------|x4

Interlude
  * * * * * * * * * * * * * * * * * * * * * * * * * * * * * * * 
-----------------------------------------------------------------|
|----------------------------------------------------------------|
|-6-6-6-6-6-6-6-6-6-6-6-6-6-8-8-/-3-3-3-3-3-3-3-3-3-3-3-3-3-5-5--|
|----------------------------------------------------------------|x2

                                    //________\\ 
|-------8-8-8-------6-6-6-------5-5--5--5-5/(3)-|
|-----------------------------------------------|
|-6-6-6-------6-6-6-------6-6-6-----6-----------|
|-----------------------------------------------|

|------5-5-5-------3-3-3------2-2-2------0-0-0-|
|----------------------------------------------|
|3-3-3-------3-3-3-------3-3-3------3-3-3------|
|--------------------------------------------- |x1


|-------8-8-8-------6-6-6-------5-5--5--5-5/(3)-|
|-----------------------------------------------|
|-6-6-6-------6-6-6-------6-6-6-----6-----------|
|-----------------------------------------------|

|------5-5-5-------3-3-3------2-2-2--------------|
|-----------------------------------3-3-/--5-0---|
|3-3-3-------3-3-3-------3-3-3-------------------|
|------------------------------------------------|x1
                                 

Verse
                * * * *
|---------------------------------------------------------|
|-5-5-5-5-5-/----------/7-7-7-7-7-/---7-8---10-10-10-10---|
|---------------------------------------------------------|
|---------------3-3-3-3-----------------------------------|
                * * * *
|------------------------------------------10-10-10-10----|
|-5-5-5-5-5-/----------/7-7-7-7-7-/---7-8-----------------|
|---------------------------------------------------------|
|---------------3-3-3-3-----------------------------------|

chorus
|-----------15-14-12-14--10-10h12p10-----------15-14-12---10-10h12p10----|
|-5-5-5-5-5--------------------------7-7-7-7-7---------------------------|
|------------------------------------------------------8-----------------|
|------------------------------------------------------------------------|x4

End Note
|-----|
|-5---|
|-----|
|(5)/-|


great great song! any comments/ corrections please mail me irotinmyskin@gmail.com
Suggest correction
Creating personal tab
Creating personal tab
You can edit any tab online and save it as your Personal.

You can edit, replace or remove any tab part or add personal notes – all changes will be seen only by you.

Personal tabs can be accessed anytime from any device, even offline.
Learn more »
comments
print report bad tab
2 comments total.
0 reply
dudebud 134 Mar 08, 2006 07:11 PM

It is highly unnecessary to tune to drop D when that string isn't even touched for the duration of the song.

-1 reply
Bass Cat 114 Jan 31, 2007 08:09 AM

they never use drop D tuning, they just drench their sound in fuzz or OD

guest
You may want to rate the tab now too:
select rating
Wanna post a correction for this tab? Suggest correction