Oops, an error
Loading. Please wait.

Dead Womb bass

version 1
version 1

Whole song

Interactive

8,860 views 15 this week
1 commentread comment
1 2 3 4 5
x 5
add to favorites
×
Save as Personal and add changes to this tab that will be seen only by you. Learn more ›
×
You can save this tab as Personal to edit and correct it or add notes. All changes will be seen only by you. Learn more »
launch autoscroll
font size
0
reset
guitar tuner
edit
Autoscroll
slow
fast
+/-
esc
set tempo
stop
Difficulty
ya i think the tab is right but if not just comment

intro
G-------------------------------------------------5-----5h7-|
D-----5/88888-5-66666-33333-55-----5/88888-5-66666-33333----|
A33333---------------5--------33333-------------------------|x2
E-----------------------------------------------------------|

G---------------------------------------------------------------------|
D33333333-5555/8888---------------------------------------------------|
A------------------3333333333333333-5555555555555555-3333333333333333-|
E---------------------------------------------------------------------|

G--------------------------------------------------------------|
D33333333-5555/10101010----------------------------------------|
A----------------------55555555-7777/10101010-0333333333333333-|
E--------------------------------------------------------------|

G-------------------------------------------|
D------------3333-5555------------3333-5555-|
A333-333-333----------333-333-333-----------|x2
E-------------------------------------------|

G-------------------------------------------------5-----5h7-|
D-----5/88888-5-66666-33333-55-----5/88888-5-66666-33333----|
A33333---------------5--------33333-------------------------|x2
E-----------------------------------------------------------|

            
            
Suggest correction
Creating personal tab
Creating personal tab
You can edit any tab online and save it as your Personal.

You can edit, replace or remove any tab part or add personal notes – all changes will be seen only by you.

Personal tabs can be accessed anytime from any device, even offline.
Learn more »
comments
print report bad tab
1 comment total.
0 reply
May21980 66 Dec 11, 2016 06:16 PM

I find it easier to play it like this, but the way you have it tabbed sounds right, so I guess just whatever you find more comfortable...

G-------33333---------------------------33333-----------------------|
D-----5-------5-66666-1-33333---------5------5-66666-8--33333-6-8---|
A33333------------------------11-33333------------------------------|
E-------------------------------------------------------------------|

Great tab regardless!

guest
Wanna post a correction for this tab? Suggest correction