Oops, an error
Loading. Please wait.

Dead Womb bass

version 3
version 3

Whole song

Interactive

4,875 views 9 this week
1 commentread comment
1 2 3 4 5
x 8
add to favorites
×
Save as Personal and add changes to this tab that will be seen only by you. Learn more ›
×
You can save this tab as Personal to edit and correct it or add notes. All changes will be seen only by you. Learn more »
launch autoscroll
font size
0
reset
guitar tuner
edit
Autoscroll
slow
fast
+/-
esc
set tempo
stop
Author
Difficulty
This is pretty much perfect, unlike the others on here.

Intro X4
|-------------3-3-3-3-3--------------------------------|
|-----------5-----------5-6-6-6-6-6-1-3-3-3-3-3--------|
|-3-3-3-3-3-------------------------------------1-1----|
|------------------------------------------------------|

|-------------3-3-3-3-3-------------5-----------5/8----|
|-----------5-----------5-6-6-6-6-6---3-3-3-3-3--------|
|-3-3-3-3-3--------------------------------------------|
|------------------------------------------------------|

Verse
|---------------------------------------------------------------------|
|-----------------5-5-5-5-8-8-8-8-------------------------------------|
|-6-6-6-6-6-6-6-6-----------------3-3-3-3-3-3-3-3-3-3-3-3-3-3-3-3-----|
|---------------------------------------------------------------------|

|---------------------------------------------------------------------|
|---------------------------------------------------------------------|
|-5-5-5-5-5-5-5-5-6-6-6-6-8-8-8-8-3-3-3-3-3-3-3-3-3-3-3-3-3-3-3-3-----|
|---------------------------------------------------------------------|

|---------------------------------------------------------------------|
|-----------------5-5-5-5-8-8-8-8-3-3-3-3-3-3-3-3-3-3-3-3-3-3-3-3-----|
|-6-6-6-6-6-6-6-6-----------------------------------------------------|
|---------------------------------------------------------------------|

|---------------------------------------------------------------------|
|---------------------------------------------------------------------|
|-5-5-5-5-5-5-5-5-6-6-6-6-8-8-8-8-3-3-3-3-3-3-3-3-3-3-3-3-3-3-3-3-----|
|---------------------------------------------------------------------|

Chorus X2
|-------------3-3-3-3-3--------------------------------|
|-----------5-----------5-6-6-6-6-6-1-3-3-3-3-3--------|
|-3-3-3-3-3-------------------------------------1-1----|
|------------------------------------------------------|

|-------------3-3-3-3-3-------------5-----------5/8----|
|-----------5-----------5-6-6-6-6-6---3-3-3-3-3--------|
|-3-3-3-3-3--------------------------------------------|
|------------------------------------------------------|

Verse
|---------------------------------------------------------------------|
|-----------------5-5-5-5-8-8-8-8-------------------------------------|
|-6-6-6-6-6-6-6-6-----------------3-3-3-3-3-3-3-3-3-3-3-3-3-3-3-3-----|
|---------------------------------------------------------------------|

|---------------------------------------------------------------------|
|---------------------------------------------------------------------|
|-5-5-5-5-5-5-5-5-6-6-6-6-8-8-8-8-3-3-3-3-3-3-3-3-3-3-3-3-3-3-3-3-----|
|---------------------------------------------------------------------|

|---------------------------------------------------------------------|
|-----------------5-5-5-5-8-8-8-8-3-3-3-3-3-3-3-3-3-3-3-3-3-3-3-3-----|
|-6-6-6-6-6-6-6-6-----------------------------------------------------|
|---------------------------------------------------------------------|

|---------------------------------------------------------------------|
|---------------------------------------------------------------------|
|-5-5-5-5-5-5-5-5-6-6-6-6-8-8-8-8-3-3-3-3-3-3-3-3-3-3-3-3-3-3-3-3-----|
|---------------------------------------------------------------------|

Bridge X2
|-------------------------------------------------|
|-------------3-3-3-------------------3-3-3-------| (figure out rhythms)
|-1-xx--5-5-5-------3-xx--5-xx--6-6-6-------3-xx--|
|-------------------------------------------------|

Chorus X2
|-------------3-3-3-3-3--------------------------------|
|-----------5-----------5-6-6-6-6-6-1-3-3-3-3-3--------|
|-3-3-3-3-3-------------------------------------1-1----|
|------------------------------------------------------|

|-------------3-3-3-3-3-------------5-----------5/8----|
|-----------5-----------5-6-6-6-6-6---3-3-3-3-3--------|
|-3-3-3-3-3--------------------------------------------|
|------------------------------------------------------|

            
            
Suggest correction
Creating personal tab
Creating personal tab
You can edit any tab online and save it as your Personal.

You can edit, replace or remove any tab part or add personal notes – all changes will be seen only by you.

Personal tabs can be accessed anytime from any device, even offline.
Learn more »
comments
print report bad tab
1 comment total.
0 reply
xAngelsOfHellx 2,208 Nov 15, 2015 07:03 AM

Tune down to D standard, and you've pretty much got this 100%, beyond some spacing/timing issues, but that's easily worked out by ear.

guest
You may want to rate the tab now too:
select rating
Wanna post a correction for this tab? Suggest correction