Oops, an error
Loading. Please wait.

Do It Live bass

5,070 views 6 this week
1 commentread comment
1 2 3 4 5
x 3
add to favorites
×
Save as Personal and add changes to this tab that will be seen only by you. Learn more ›
×
You can save this tab as Personal to edit and correct it or add notes. All changes will be seen only by you. Learn more »
launch autoscroll
font size
0
reset
guitar tuner
edit
Autoscroll
slow
fast
+/-
esc
set tempo
stop
Author
Difficulty
Tabbed By : matddors
e-mail: matddors@comcast.net

Tuning: standard

1st Part (12x)

0:04
G|-------------------------------------------------------------------------|
D|---0------3-5-1----------------------------------------------------------|
A|-1---1----------3--------------------------------------------------------|
E|-------3-----------------------------------------------------------------|

2nd Part (8x)

0:53
G|-------------------------------------------------------------------------|
D|-------------------------------------------------------------------------|
A|-------------------------------------------------------------------------|
E|--3333333333334422-------------------------------------------------------|

3rd Part (6x)

1:25
G|-------------------------------------------------------------------------|
D|---0------3-5-1----------------------------------------------------------|
A|-1---1----------3--------------------------------------------------------|
E|-------3-----------------------------------------------------------------|

4th Part

1:49
G|-------------------------------------------------------------------------|
D|-------------------------------------------------------------------------|
A|-------------------------------------------------------------------------|
E|-3~--------3~------------------------------------------------------------|

5th Part (11x)

2:04
G|------------------------------------------------------------------7------|
D|-----------------------------------------------8----------10-------------|
A|--810101010-8----------8------8------810101010---------------------------|
E|--------------10101010---8888---3333-------------10101010----8888----3333|

6th Part (4x)

3:24
G|-------------------------------------------------------------------------|
D|-------------------------------------------------------------------------|
A|----------3------3-------------------------------------------------------|
E|-66669999---3333---3333--------------------------------------------------|

7th Part (1x)

3:36
G|-------------------------------------------------------------------------|
D|-------------------------------------------------------------------------|
A|-------------------------------------------------------------------------|
E|-66669999----------------------------------------------------------------|

8th Part (9x)

3:38
G|--------------------10797------------------------------------------------|
D|-7----7----7---7----------10--7----7----7---7----10797-------------------|
A|---88---88---8---88-------------88---88---8---88-------10----------------|
E|-------------------------------------------------------------------------|

9th Part (x)

4:23
G|-------------------------------------------------------------------------|
D|-7----7----7----7--------------------------------------------------------|
A|---88---88---88---88-----------------------------------------------------|
E|-------------------------------------------------------------------------|

10th Part (2x)

4:28
G|-------------------------------------------------------------------------|
D|-7----7----7---7----7----7-----------------------------------------------|
A|---88---88---8---88---88---8---------------------------------------------|
E|-------------------------------------------------------------------------|

End On (1x)

4:34
G|-----------14-----------16-----------17----------------------------------|
D|-7----7-------7----7-------7----7-------7----7----7----------------------|
A|---88---88------88---88------88---88------88---88------------------------|
E|----------------------------------------------------3--------------------|





1st and 3rd Part Variation
 
G|-----------------5-------------------------------------------------------|
D|---0-----3-5-1-----------------------------------------------------------|
A|-1---1---------3---------------------------------------------------------|
E|-------3-----------------------------------------------------------------|
Suggest correction
Creating personal tab
Creating personal tab
You can edit any tab online and save it as your Personal.

You can edit, replace or remove any tab part or add personal notes – all changes will be seen only by you.

Personal tabs can be accessed anytime from any device, even offline.
Learn more »
Give kudos to tab author, rate the tab!
1 2 3 4 5
comments
print report bad tab
1 comment total.
0 reply
May21980 66 Mar 18, 2017 03:38 PM, edited at 07:39 pm

5th part is way easier to play like this.
G|----------------------------------------3------5---------------------|
D|-355-5--3-------3-------3--------355-5-----------------3-------------|
A|----------55-5----33-3-------------------55-5----33-3----------------|
E|--------------------------33-3---------------------------33-3--------|

guest
You may want to rate the tab now too:
select rating
Wanna post a correction for this tab? Suggest correction