Oops, an error
Loading. Please wait.

Going Steady bass

version 2
version 2

Whole song

Interactive

3,460 views 15 this week
no commentswrite comment
1 2 3 4 5
1 last vote to show rating
add to favorites
×
Save as Personal and add changes to this tab that will be seen only by you. Learn more ›
×
You can save this tab as Personal to edit and correct it or add notes. All changes will be seen only by you. Learn more »
launch autoscroll
font size
0
reset
guitar tuner
edit
Autoscroll
slow
fast
+/-
esc
set tempo
stop
Author
Fairly similar to the other tab, but this is the way I like to play it.
 Quite a few of the changes are not note changes, but just positional 
changes on the fret board. Enjoy and feel free to make slight 
changes to this if you think there is something I could be doing better.

tabbed by Kegar

Intro
G]--------------------------------------------------------|x3
D]5-5-------------------------3-3-------------------------|
A]----3---1-1-1-1-1-1-1-1-1-1-----3-3---------------------|
E]------3-----------------------------3-3-3-3-3-3-3-3-3-3-|

G]-------------------------------------------------------|
D]5-5------------------------3-3-------------------------|
A]----3---1-1-1-1-3h4-3--3-3-----3-3---------------------|
E]------3----------------------------3-3-3-3-3-3-3-3-3-3-|

First Verse (same as intro)
G]--------------------------------------------------------|x3
D]5-5-------------------------3-3-------------------------|
A]----3---1-1-1-1-1-1-1-1-1-1-----3-3---------------------|
E]------3-----------------------------3-3-3-3-3-3-3-3-3-3-|

G]-------------------------------------------------------|
D]5-5------------------------3-3-------------------------|
A]----3---1-1-1-1-3h4-3--3-3-----3-3---------------------|
E]------3----------------------------3-3-3-3-3-3-3-3-3-3-|


Chorus
G]-------5-4---------7-3---------5-2---------3-0|x2
D]----------------------------------------------|
A]----------------------------------------------|
E]3-3-3-------6-6-6-------5-5-5-------4-4-4-----|

G]---------12-10----------14-10---------12-10---------10-7|x2
D]--------------------------------------------------------|
A]10-10-10-------13-13-13-------12-12-12------11-11-11----|
E]--------------------------------------------------------|

G]----------------------------------------------------------------|
D]----------------------------------------------------------------|
A]----------------------------------------------------------------|
E]3-3-3-3-3-3-3-3-3-3-3-3-3-3-3-3-3-3-3-3-3-3-3-3-3-3-3-3-3-3-3-3-|


G]-------5-4---------7-3---------5-2----------3-0|x2         \
D]-----------------------------------------------|            \
A]-----------------------------------------------|   	         \	
E]3-4-3-------6-7-6-------5-6-5--------4-5-4-----|              \   
						
G]---------12-10---------14-10---------12-10---------10-7|x2     /x2
D]-------------------------------------------------------|      / 
A]10-11-10------13-14-13-------12-13-12------11-12-11----|     /
E]-------------------------------------------------------|    /

G]-------5-4---------7-3---------5-2----------3-0|x2
D]-----------------------------------------------|
A]-----------------------------------------------|   		
E]3-4-3-------6-7-6-------5-6-5--------4-5-4-----|


outro
G]------------------------------------------------|
D]------------------------------------------------|
A]-10-10-10-10-10-10-10-10-8-8-8-8-8-8-8-8--------|
E]------------------------------------------------|

G]------------------------------------------------| whole outro x4
D]------------------------------------------------|
A]-6-6-6-6-6-6-6-6-3-3-3-3-3-3-3-3----------------|
E]------------------------------------------------|

END


            
            
Suggest correction
Creating personal tab
Creating personal tab
You can edit any tab online and save it as your Personal.

You can edit, replace or remove any tab part or add personal notes – all changes will be seen only by you.

Personal tabs can be accessed anytime from any device, even offline.
Learn more »
Give kudos to tab author, rate the tab!
1 2 3 4 5
comments
print report bad tab
guest
You may want to rate the tab now too:
select rating
Wanna post a correction for this tab? Suggest correction