Oops, an error
Loading. Please wait.

If We Dont Make It Well Fake It bass

version 2
version 2

Whole song

Interactive

3,325 views 6 this week
1 commentread comment
1 2 3 4 5
1 last vote to show rating
add to favorites
×
Save as Personal and add changes to this tab that will be seen only by you. Learn more ›
×
You can save this tab as Personal to edit and correct it or add notes. All changes will be seen only by you. Learn more »
launch autoscroll
font size
0
reset
guitar tuner
edit
Autoscroll
slow
fast
+/-
esc
set tempo
stop
Author
Difficulty
-------------------------------------------------------------------------------
	     IF WE DON'T MAKE IT WE'LL FAKE IT - Death From Above 1979
-------------------------------------------------------------------------------

Band: Death From Above 1979
Band Site: http://www.deathfromabove1979.com/
Song: If We Don't Make it We'll Fake it
Album: Heads Up! EP
Tabbed By: Rick Gardiner
e-mail: rick_gardiner@hotmail.com

Tuning: Standard

This song is pretty easy to play after you get the parts down, one of my favourites to 
on bass!

Jesse likes to use distortion on his bass, I'm pretty sure every DFA'79 song has some. 
the distortion to full, and have fun!

Intro - Heavy Distortion

G|---------------------|
D|---------------------|
A|-0---0---0--0--0-----|X4
E|------------------3--|

Verse - Heavy Distortion

G|--------------------------------------------------------|
D|---3--3-3--3-3--3-3--3-3-----0--0-0--0-0--0-0--0-0------|
A|--------------------------3-----------------------------|
E|----------------------------------------------------3---|


G|---2--2-2--2-2--2-2--2-2--0--2--2-2--2-2--2-2--2-2--0---|
D|--------------------------------------------------------|
A|--------------------------------------------------------|
E|--------------------------------------------------------|


G|--------------------------------------------------------|
D|---3--3-3--3-3--3-3--3-3-----0--0-0--0-0--0-0--0-0------|
A|--------------------------3-----------------------------|
E|----------------------------------------------------3---|


G|--------------------------------------------------------|
D|--------------------------------------------------------|
A|---0--0-0--0-0--0-0--0-0-----0--0-0--0-0--0-0--0-0------|
E|--------------------------3-------------------------3---|


G|--------------------------------------------------------|
D|---3--3-3--3-3--3-3--3-3-----0--0-0--0-0--0-0--0-0------|
A|--------------------------3-----------------------------|
E|----------------------------------------------------3---|


G|---2--2-2--2-2--2-2--2-2--0--2--2-2--2-2--2-2--2-2--0---|
D|--------------------------------------------------------|
A|--------------------------------------------------------|
E|--------------------------------------------------------|


G|--------------------------------------------------------|
D|---3--3-3--3-3--3-3--3-3-----0--0-0--0-0--0-0--0-0------|
A|--------------------------3-----------------------------|
E|----------------------------------------------------3---|

Chorus - Heavy Distortion

G|--------------0--0-0-----------------------------| -|
D|-----------3----------2--3--3-3-----0--0-0-------|  |
A|---0--0-0------------------------3---------------|  |
E|---------------------------------------------3---|  |
                                                      |
                                                      | X4
G|--------------0--0-0-------------5-----------5---|  |
D|-----------3----------2--3--3-3-----0--0-0-------|  |
A|---0--0-0----------------------------------------|  |
E|-------------------------------------------------| -|

Bridge - Heavy Distortion

G|--------------------------|
D|--------------------------|
A|-0--0-0--0-0--0-0--0-0----|X4
E|------------------------3-|

Verse - Heavy Distortion

G|--------------------------------------------------------|
D|---3--3-3--3-3--3-3--3-3-----0--0-0--0-0--0-0--0-0------|
A|--------------------------3-----------------------------|
E|----------------------------------------------------3---|


G|---2--2-2--2-2--2-2--2-2--0--2--2-2--2-2--2-2--2-2--0---|
D|--------------------------------------------------------|
A|--------------------------------------------------------|
E|--------------------------------------------------------|


G|--------------------------------------------------------|
D|---3--3-3--3-3--3-3--3-3-----0--0-0--0-0--0-0--0-0------|
A|--------------------------3-----------------------------|
E|----------------------------------------------------3---|

Outro - Heavy Distortion (Same line played on synth)

G|--------0--2--4--2-0-2-0----------0--2--0-------------| -|
D|-----2-------------------2-----2---------------3------|  |
A|--0-------------------------0-------------------------|  |
E|------------------------------------------------------|  |
                                                           |
                                                           |X6
G|--------0--2--4--2-0-2-0----------0--2--0-0-0---------|  |
D|-----2-------------------2-----2---------------3-3-3--|  |
A|--0-------------------------0-------------------------|  |
E|------------------------------------------------------| -|


G|--------0--2--4--2----7---|
D|-----2--------------------|
A|--0-----------------------|
E|--------------------------|

The rythms are all the same pretty much, just listen to the song to figure it out.
If you find any problems, e-mail me at rick_gardiner@hotmail.com.


| /  slide up
| \  slide down
| h  hammer-on
| p  pull-off
| ~  vibrato
| +  harmonic
| x  Mute note
===============================================================================

            
            
Suggest correction
Creating personal tab
Creating personal tab
You can edit any tab online and save it as your Personal.

You can edit, replace or remove any tab part or add personal notes – all changes will be seen only by you.

Personal tabs can be accessed anytime from any device, even offline.
Learn more »
Give kudos to tab author, rate the tab!
1 2 3 4 5
comments
print report bad tab
1 comment total.
0 reply
Notoriousdoc 195 Dec 22, 2006 06:55 PM

The main riff sounds a lot better and makes more sense on the first tab. The ending's probably better on this though, I'll check when I get my bass back.

guest
You may want to rate the tab now too:
select rating
Wanna post a correction for this tab? Suggest correction