Oops, an error
Loading. Please wait.

Pull Out bass

version 2
version 2

Whole song

Interactive

17,414 views 18 this week
7 commentsread comments
1 2 3 4 5
x 10
add to favorites
×
Save as Personal and add changes to this tab that will be seen only by you. Learn more ›
×
You can save this tab as Personal to edit and correct it or add notes. All changes will be seen only by you. Learn more »
launch autoscroll
font size
0
reset
guitar tuner
edit
Autoscroll
slow
fast
+/-
esc
set tempo
stop
Song: Pull Out
Band: Death From Above 1979
Tuning: Standard
Tabbed By: Hana K.

Great song. This tab isn’t perfect, but it sounds pretty close to me. Please rate & comment!

Intro/Verse
G |---1010--88-6665---88------------------|
D |------------------------88-5h6p5h6-----|
A |-88----88--------66--------------------|
E |----------------------66---------------|

G |---1010--88-6665---88------12h13p12h13----|
D |------------------------88----------------|
A |-88----88--------66-----------------------|
E |----------------------66------------------|


Chorus
G |------------------------------------------------------------|
D |------------------------------------------------------------|
A |--------------------------------------6666------------------|
E |-111111111/33/6666/4444--11111111/33----0000----------------|


End on F (A-8).
Suggest correction
Creating personal tab
Creating personal tab
You can edit any tab online and save it as your Personal.

You can edit, replace or remove any tab part or add personal notes – all changes will be seen only by you.

Personal tabs can be accessed anytime from any device, even offline.
Learn more »
comments
print report bad tab
7 comments total. Showing first comments.
0 reply
Xeus 223 Jan 25, 2008 06:50 AM

Hey pretty good man, the only thing i'd say is that its sounds more like a f sharp at the end:


Chorus
G
|------------------------------------------------------------|
D
|------------------------------------------------------------|
A
|--------------------------------------6666------------------|
E
|-111111111/33/6666/4444--11111111/33----2222----------------|

0 reply
kingurth 155 Aug 11, 2008 10:47 AM

Most of their songs are actually played with the bass tuned a step down, so really the tuning should be FCGD instead of GDAE, and all notes should be transposed up a fret. But it sounds the same, it's just a semantic thing.

0 reply
Yngwie Gates 111 Nov 26, 2008 04:23 PM

DUDE!!!! Nice job this is PERFECT. one Flaw:( there songs are tuned a step down but this is good!! Jesse Keeler is a great bassist.

guest
You may want to rate the tab now too:
select rating
Wanna post a correction for this tab? Suggest correction