Oops, an error
Loading. Please wait.

Sexy Results bass

version 2
version 2

Whole song

Interactive

7,297 views 3 this week
2 commentsread comments
1 2 3 4 5
x 10
add to favorites
×
Save as Personal and add changes to this tab that will be seen only by you. Learn more ›
×
You can save this tab as Personal to edit and correct it or add notes. All changes will be seen only by you. Learn more »
launch autoscroll
font size
0
reset
guitar tuner
edit
Autoscroll
slow
fast
+/-
esc
set tempo
stop
Author
Difficulty
-------------------------------------------------------------------------------
         Sexy Results (MSTRKRFT) Edition - Death From Above 1979 
-------------------------------------------------------------------------------

Tabbed By : johnny

Tuning:

G|-----------------4-----5---------------------------------------------------|
D|--7---7--567---------------------------------------------------------------|
A|----0--------0-2---2\3-----------------------------------------------------|
E|---------------------------------------------------------------------------|

G|-----------------9-----5---------------------------------------------------|
D|--7---7--567-0-------------5-----------------------------------------------|
A|----0----------7---2\3-----------------------------------------------------|
E|-------------------------3-------------------------------------------------|

its 10000% correct
cant get any more correct
if it sounds wrong to you 
then you're deaf

            
            
Suggest correction
Creating personal tab
Creating personal tab
You can edit any tab online and save it as your Personal.

You can edit, replace or remove any tab part or add personal notes – all changes will be seen only by you.

Personal tabs can be accessed anytime from any device, even offline.
Learn more »
comments
print report bad tab
2 comments total.
+2 reply
Tragically_Hip 10 Jun 19, 2010 09:18 AM

At first I was like "this is not how you play this song one bit" but then I noticed it was a different version. I had never heard it before till now but this tab is spot on.

+1 reply
oli-kun 38 Jul 14, 2011 12:22 PM

Yeah it's "Sexy Results (MSTRKRFT Edition)"

guest
You may want to rate the tab now too:
select rating
Wanna post a correction for this tab? Suggest correction