Oops, an error
Loading. Please wait.

Turn It Out bass

version 2
version 2

Whole song

Interactive

12,369 views 18 this week
5 commentsread comments
1 2 3 4 5
x 9
add to favorites
×
Save as Personal and add changes to this tab that will be seen only by you. Learn more ›
×
You can save this tab as Personal to edit and correct it or add notes. All changes will be seen only by you. Learn more »
launch autoscroll
font size
0
reset
guitar tuner
edit
Autoscroll
slow
fast
+/-
esc
set tempo
stop
Author
Difficulty
First off, I don't like the other tabs that have all of these songs in regular tuning.
changes the tone of your bass, and the tone of the song.  Thusly, I've written out every
song on the You're a Woman, I'm a Machine album, and others in drop tuning.  Don't play 
in regular.  They drop tuned it for a reason.  Hard to follow at once, this is
in order of the way the song was composed.

In the beginning, the open G (A string) is very important in the accenting of the song.
avoid playing it.

Tuning:  DGCF

Intro - The screaming noise is made with the pick scratching down then up the neck on
F string (G string other wise), and hitting open C twice before each swipe.

                                                        x4
F---------10-10-10--------9-9-9--------7-7-7--------7-7-7---||
C----------------------------------------------------------*||
G---0^55------------0^55---------0^55---------0^55---------*||
D-----------------------------------------------------------||

Verse:
                                                                 x4
F--------10-12-10-----------9-10-9---------5-7-5----------5-7-5---||
C----------------------------------------------------------------*||
G---0^55-------------0^55-------------0^55----------0^55---------*||
D-----------------------------------------------------------------||

Pre-Chorus (I suppose you'd call it)

F-----9-10-12--9-10-12--9-10-12--9-10-12-||
C---------------------------------------*||
G---10-------10-------10-------10-------*||
D----------------------------------------||

The whole thing repeats without the beginning bass part with the pick scratching.

Intro x 2
Verse x4
Pre-Chorus x2

F----4-5-7--4-5-7--4-5-7--4-5-7--4-5-7--4-5-7--4-5-7--4-5-7||
C----------------------------------------------------------||
G---5------5------5------5------5------5------5------5-----||
D----------------------------------------------------------||


F-----9-10-12--9-10-12--9-10-12--9-10-12--9-10-12--9-10-12--15-15-15-15||
C----------------------------------------------------------------------||
G---10-------10-------10-------10-------10-------10--------------------||
D----------------------------------------------------------------------||

F----4-5-7--4-5-7--4-5-7--4-5-7--4-5-7--4-5-7--4-5-7--4-5-7||
C----------------------------------------------------------||
G---5------5------5------5------5------5------5------5-----||
D----------------------------------------------------------||

Bridge/Chorus

F----------------------------------------------------------------------||
C----------------------------------------------------------------------||
G-----8-8-8-8-8-8-8-8-8-8-8-8-8-8-8--3-3-3-3-3-3-3-3/13-13-13-13-13-13-||
D----------------------------------------------------------------------||

Then back to this again

F---------10-10-10--------9-9-9--------7-7-7--------7-7-7---||
C----------------------------------------------------------*||
G---0^55------------0^55---------0^55---------0^55---------*||
D-----------------------------------------------------------||
                                                                  x4
F--------10-12-10-----------9-10-9---------5-7-5----------5-7-5---||
C----------------------------------------------------------------*||
G---0^55-------------0^55-------------0^55----------0^55---------*||
D-----------------------------------------------------------------||

Outro

F-------||
C-------||
G---5\0-||
D-------||

            
            
Suggest correction
Creating personal tab
Creating personal tab
You can edit any tab online and save it as your Personal.

You can edit, replace or remove any tab part or add personal notes – all changes will be seen only by you.

Personal tabs can be accessed anytime from any device, even offline.
Learn more »
comments
print report bad tab
5 comments total. Showing first comments.
0 reply
FinderofNemo 337 Sep 05, 2007 03:10 PM

Thanks for tabbing it in drop tuning, people don't realize that it changes the tone if you play it in standard.

0 reply
FinderofNemo 337 Sep 06, 2007 03:37 PM

Well i don't know if you'd call it dropped but whatever

+3 reply
Seney 419 Aug 17, 2009 02:54 PM

Wouldn't it be A LOT easier if you just played the pre-chorus all on F like, 0-9-10-12 over and over again, then play the second part all on the C string like 0-9-10-12. Seems easier to me. Good tab though!

guest
You may want to rate the tab now too:
select rating
Wanna post a correction for this tab? Suggest correction