Oops, an error
Loading. Please wait.

Youre A Woman Im A Machine album bass

version 1
version 1

Album

Whole song

Interactive

3,926 views 18 this week
3 commentsread comments
1 2 3 4 5
x 3
add to favorites
×
Save as Personal and add changes to this tab that will be seen only by you. Learn more ›
×
You can save this tab as Personal to edit and correct it or add notes. All changes will be seen only by you. Learn more »
launch autoscroll
font size
0
reset
guitar tuner
edit
Autoscroll
slow
fast
+/-
esc
set tempo
stop
Author
Difficulty
i DIDNT TAB THIS I FOUNT IT ONLINE AND THOUGHT 
I'D SHARE



Turn it Out
Artist: Death From Above 1979
Album: You're a Woman I'm A Machine
Tuning: Standard EADG
Intro-(I dont know how to make the wierd noise.  Improvise!)
-----------------------------------------------|
-----------------------------------------------|
---333----------333--------333--------333------|  x2
-----------------------------------------------|


-------888------777------555-------555---------|
-----------------------------------------------|
--333-------333------333------333--------------|  x4
-----------------------------------------------|
Verse
-------8-10-8-----787--------575-----575-------|
-----------------------------------------------|
--333---------333-------333-----333------------|  x4
-----------------------------------------------|
"Be there for you someday, soon......"
Bridge 1
-----8h10--8h10--8h10--8h10--|
-----------------------------|
--88-----88----88------88----| x2
-----------------------------|


-------888------777------555-------555---------|
-----------------------------------------------|
--333-------333------333------333--------------|  x2
-----------------------------------------------|

Back To Verse
Then To Bridge 2

-----8h10--8h10--8h10--8h10--------------------------|
-----------------------------     ---------\---------|
--88-----88----88----88------ x2---------------------|            \
-----------------------------------------------------|  
              \
 Play Twice

---3h5--3h5--3h5--3h5--------------------------------|                /
-----------------------------------------------------|               /
-33--33--33--33--------------| x2  
-----------------------------------------------------|


--------------------------------------|
-----------------------------66666666-|
-6666666666666666-111111111-----------|
--------------------------------------|



"Oooohh, we'll take the time, take the time to turn it out..."
Outro-  (Pretty ,much the same old riffs)

-------888------777------555-------555---------|
-----------------------------------------------|
--333-------333------333------333--------------|  x2
-----------------------------------------------|


-------8-10-8-----787--------575-----575-------|
-----------------------------------------------|
--333---------333-------333-----333------------|  x4
-----------------------------------------------|


-----------------------------------------------|
-----------------------------------------------|
---333----------333--------333--------333------|  x2
-----------------------------------------------|


--------------------------------------------------|
--------------------------------------------------|
---3\---------------------------------------------|
--------------------------------------------------|
Finished!

ROMANTIC RIGHTS

PLAY IN D-STANDARD
D-G-C-F TUNING


For the scratches, the SYMBOL "~\" is used.

Actual version he is using a distortion pedal an is really scratchy 
it sounds real cool. This is such a good song have fun playing it.



INTRO x1
|-----------------------------------------------------|
|-----------------------------~\~\~\~\~\---~\~\~\~\~\-|
|-0-~\~\~\~\~\-0-~\~\~\~\~\-0------------0------------|
|-----------------------------------------------------|

|---~\~\~\~\~\---~\~\~\~\~\---~\~\~\~\~\---~\~\~\~\~\-|
|-----------------------------------------------------|
|-0------------0------------0------------0------------|
|-----------------------------------------------------|

|--------------------------------------------------~\-|
|---~\~\~\~\~\---~\~\~\~\~\---------------------------|
|-0------------0------------0-~\~\~\~\~\-0-~\~\~\~\---|
|-----------------------------------------------------|

    
  PRE-VERSE x1
|----|------------------------------------------------|
|----|---------5-3-----------------5-3----------------|
|----|-------------5-0-2-3-------------5-0-2-3--------|
|-\0-|-5-5-3-5-------------5-5-3-5--------------------|

     |---------------------------------------5--------|
     |---------5-3-----------------5-3----------------|
     |-------------5-0-2-3-------------5-0-2----------|
     |-5-5-3-5-------------5-5-3-5--------------------|

VERSE x2
|------------------------------------------------|
|---------5-3-----------------5-3----------------|
|-------------5-0-2-3-------------5-0-2-3--------|
|-5-5-3-5-------------5-5-3-5--------------------|

|---------------------------------------5--------|
|---------5-3-----------------5-3----------------|
|-------------5-0-2-3-------------5-0-2----------|
|-5-5-3-5-------------5-5-3-5--------------------|


BRIDGE x2
|----------------------------8-7-8-7-|   Not to sure if this is right notes for "8-7".
|-----------8-7-8-7------------------|
|-0-0-0-0-0------- 0-0-0-0-0---------|
|------------------------------------   
....don't need you, i want you.....

VERSE x1
|------------------------------------------------|
|---------5-3-----------------5-3----------------|
|-------------5-0-2-3-------------5-0-2-3--------|
|-5-5-3-5-------------5-5-3-5--------------------|

|---------------------------------------5--------|
|---------5-3-----------------5-3----------------|
|-------------5-0-2-3-------------5-0-2----------|
|-5-5-3-5-------------5-5-3-5--------------------|

CHORUS x1
|------------------------------------------------|
|---------5-3-----------------5-3----------------|
|-------------5-0-2-3-------------5-0-2-3--------|
|-5-5-3-5-------------5-5-3-5--------------------|

|---------------------------------------5--------|
|---------5-3-----------------5-3----------------|
|-------------5-0-2-3-------------5-0-2----------|
|-5-5-3-5-------------5-5-3-5--------------------|

 x2
|------------------------------------------------|
|---------5-3-----------------5-3----------------|
|-------------5-0-2-3-------------5-0-2-3--------|
|-5-5-3-5-------------5-5-3-5--------------------|

|---------------------------------------5--------|
|---------5-3-----------------5-3----------------|
|-------------5-0-2-3-------------5-0-2----------|
|-5-5-3-5-------------5-5-3-5--------------------|

 X2
|------------------------------------------------|
|---------5-3-----------------5-3----------------|
|-------------5-0-2-3-------------5-0-2-3--------|
|-5-5-3-5-------------5-5-3-5--------------------|

|---------------------------------------5--------|
|---------5-3-----------------5-3----------------|
|-------------5-0-2-3-------------5-0-2----------|
|-5-5-3-5-------------5-5-3-5--------------------|

AGAIN DIST. X1
|------------------------------------------------|
|---------5-3-----------------5-3----------------|
|-------------5-0-2-3-------------5-0-2-3--------|
|-5-5-3-5-------------5-5-3-5--------------------|

|---------------------------------------5--------|
|---------5-3-----------------5-3----------------|
|-------------5-0-2-3-------------5-0-2----------|
|-5-5-3-5-------------5-5-3-5--------------------|

BRIDGE
|---------------------------8-7-8-7-| 
|-----------8-7-8-7-----------------|   
|-0-0-0-0-0----------0-0-0-0-0------| 
|-----------------------------------|
....don't need you, i want you.....

PRE-OUTRO x2
|--------------------------12--------------------------12-|
|------12-10-12------12-10---------12-10-12------12-10----|
|-0-12----------0-12----------0-12----------0-12----------|
|---------------------------------------------------------|

OUTRO x8                    END
|--------------------------|-----|
|------12-12-12-12-12-0-10-|-----|
|-0-12---------------------|-0-0-|
|--------------------------|-----|











GOING STEADY
I don’t know if this one is right or not
E standard.
intro
G]--------------------------------------------------------|x3
D]5-5-------------------------3-3-------------------------|
A]----3---1-1-1-1-1-1-1-1-1-1-----3-3---------------------|
E]------3-----------------------------3-3-3-3-3-3-3-3-3-3-|

G]-------------------------------------------------------|
D]5-5------------------------3-3-------------------------|
A]----3---1-1-1-1-3h4-3--3-3-----3-3---------------------|
E]------3----------------------------3-3-3-3-3-3-3-3-3-3-|

first verse
G]---------------------------------------------------|
D]--------------------3-3----------------------------|
A]1-1-1-1-1-1-1-1-1-1-----3-3---------------------3-3|
E]----------------------------3-3-3-3-3-3-3-3-3-3----|

G]------------------------------------------------|
D]--------------------3-3-------------------------|
A]1-1-1-1-1-1-1-1-1-1-----3-3---------------------|
E]----------------------------3-3-3-3-3-3-3-3-3-3/|

Course pt.1
G]-------5-4---------7-3---------5-2---------3-0|
D]----------------------------------------------|
A]------------------------0-0-0-----------------|
E]3-3-3-------6-6-6-------------------4-4-4-----|

Course pt.2
G]-------12-10---------14-10---------12-10---------10-7|
D]-----------------------------------------------------|
A]----------------------------0-0-0--------------------|
E]3-3-3---------6-6-6-----------------------4-4-4------|

Course pt.3
G]-------5-4---------7-3---------5-2----------3-0|
D]-----------------------------------------------|
A]------------1-2-1-------0-1-0------------------|
E]3-4-3--------------------------------4-5-4-----|

Course pt.4
G]-------12-10---------14-10---------12-10---------10-7|
D]-----------------------------------------------------|
A]--------------1-2-1---------0-1-0--------------------|
E]3-4-3-------------------------------------4-5-4------|

outro
G]0-0-0-0-0-0-0-0-----------------1-1-1-1-1-1-1-1----------------|
D]----------------3-3-3-3-3-3-3-3--------------------------------|
A]------------------------------------------------3-3-3-3-3-3-3-3|
E]---------------------------------------------------------------|

GO HOME, GET DOWN

intro

G-------------------------------------------------------------------------
D-3h55-3h55-3h55-3h55-3p00-3p00-3p00-3p00-3--3--3---3---3---3---3--3---
A---------------------------------------------33-33-11--11----------------
E------------------------------------------------------------33--33-33--33

next part

G---6-6---6-6-------6-6---6-6---3
D---5-5---5-5---3---5-5---5-5----
A---------------------------------
E-33----33----33--33----33---33--

then

G---5-5--3-3---2--3-3----2-2---0
D--------------------------------
A-33---11----00-----------------
E----------------33----11----00-

the next part isn’t possible to do unless you tune down.. but 
you can go like this and it'll sound more or less the same

G----------------------------------
D-55-555-5-33-333-3---------11-111
A-------------------33-333-3-------
E-----------------------------------

then play that other part and your done!


 Blood on Our Hands


This is what I get from the song by listening to it over and over again. There 
are very
subtle things that the bassist does in the song, and I think I caught most 
of them. I'll
write it so it is east to understand.
I do it in drop D BUT I'll write it in STANDARD TUNING (E-a-d-g).

->-> = slide up
<-<- = slide down

G-------------------------------------------------------------------|
D-------------------------------------------------------------------|
A--101010-10<-<---------------121212-12<-<------13-13---151515-15---|
E-------------------3--3--3-----------------------------------------|

G-------------------------------------------------------------------|
D-------------------------------------------------------151515-15---|
A--101010-10<-<-----3--3--3---121212-12<-<------13-13---------------|
E-------------------------------------------------------------------|

G-----------15--14--12--14--10-10-12-12-10-|
D------------------------------------------|
A-101010-10--------------------------------|
E------------------------------------------|

G-----------15--14--12-----10-10-12-------|
D-----------------------------------10----|
A-121212-12------------13-----------------|
E-----------------------------------------|

G-----------15--14--12--14--10-10-12-12-10-|
D------------------------------------------|
A-101010-10--------------------------------|
E------------------------------------------|

G-----------15--14--12------10-10-12-1210-|
D-----------------------------------------|
A-121212-12-------------13----------------|
E-----------------------------------------|

G-------------------------------------------------------------------|
D-------------------------------------------------------------------|
A--101010-10<-<---------------121212-12<-<------13-13---151515-15---|
E-------------------3--3--3-----------------------------------------|

G-------------------------------------------------------------------|
D-------------------------------------------------------151515-15---|
A--101010-10<-<-----3--3--3---121212-12<-<------13-13---------------|
E-------------------------------------------------------------------|

G-----------15--14--12--14--10-10-12-12-10-|
D------------------------------------------|
A-101010-10--------------------------------|
E------------------------------------------|

G-----------15--14--12-----10-10-12-------|
D-----------------------------------10----|
A-121212-12------------13-----------------|
E-----------------------------------------|

G-----------15--14--12--14--10-10-12-12-10-|
D------------------------------------------|
A-101010-10--------------------------------|
E------------------------------------------|


G-----------15--14--12-----10-10-12-------|
D-----------------------------------10----|
A-121212-12------------13-----------------|
E-----------------------------------------|

G-----------15--14--12--14--10-10-12-12-10-|
D------------------------------------------|
A-101010-10--------------------------------|
E------------------------------------------|

G-----------15--14--12-----10-10-12-------|
D-----------------------------------10----|
A-121212-12------------13-----------------|
E-----------------------------------------|

G-----------15--14--12--14--10-10-12-12-10-|
D------------------------------------------|
A-101010-10--------------------------------|
E------------------------------------------|

G-----------15--14--12-----10-10-12-------|
D-----------------------------------10----|
A-121212-12------------13-----------------|
E-----------------------------------------|

G-------------------------------------------------|
D-------------------------------------------------|
A-------------------------------------------------|
E-11-11-11-11-11-11-11-11-11-11-11-11-11-13-13----|-<

G------------------------------------|
D------------------------------------|
A------------------------------------|
E-8-8-8-8-8-8-8-8-8-8-8-8-8-10-10-10-|

G-------------------------------------------------|
D-------------------------------------------------|
A-------------------------------------------------|
E-11-11-11-11-11-11-11-11-11-11-11-11-11-13-13----|-<

G------------------------------------|
D------------------------------------|
A------------------------------------|
E-8-8-8-8-8-8-8-8-8-8-8-8-8-10-10-10-|

G-------------------------------------------------|
D-------13-13-------11-11-------10-10-------------|
A----------------------------------------13-13----|-<
E-11-11-------11-11-------11-11-------11----------|

G--------------------------------------|
D-----10-10-----8-8-----7-7------------|
A-----------------------------10-10----|-<
E-8-8-------8-8-----8-8-----8----------|


G-------------------------------------------------|
D-------13-13-------11-11-------10-10-------------|
A----------------------------------------13-13----|-<
E-11-11-------11-11-------11-11-------11----------|

G-----------------------------------|
D-----10-10-----8-8-----7-7---------|
A---------------------------8-10----|
E-8-8-------8-8-----8-8----------8--|

G-------------------------------------------------------------------|
D-------------------------------------------------------------------|
A--101010-10<-<---------------121212-12<-<------13-13---151515-15---|
E-------------------3--3--3-----------------------------------------|

G-------------------------------------------------------------------|
D-------------------------------------------------------151515-15---|
A--101010-10<-<-----3--3--3---121212-12<-<------13-13---------------|
E-------------------------------------------------------------------|


G-----------15--14--12--14--10-10-12-12-10-|
D------------------------------------------|
A-101010-10--------------------------------|
E------------------------------------------|

G-----------15--14--12-----10-10-12-------|
D-----------------------------------10----|
A-121212-12------------13-----------------|
E-----------------------------------------|

G-----------15--14--12--14--10-10-12-12-10-|
D------------------------------------------|
A-101010-10--------------------------------|
E------------------------------------------|

G-----------15--14--12-----10-10-12-------|
D-----------------------------------10----|
A-121212-12------------13-----------------|
E-----------------------------------------|

G-----------15--14--12--14--10-10-12-12-10-|
D------------------------------------------|
A-101010-10--------------------------------|
E------------------------------------------|

G-----------15--14--12-----10-10-12-------|
D-----------------------------------10----|
A-121212-12------------13-----------------|
E-----------------------------------------|

G-----------15--14--12--14--10-10-12-12-10-|
D------------------------------------------|
A-101010-10--------------------------------|
E------------------------------------------|


G-----------15--14--12-----10-10-12--------|
D-----------------------------------10-----|
A-121212-12------------13---------------10-|
E------------------------------------------|



BLACK HISTORY MONTH

INTRO / VERSE/ OUTRO
|-----------------------10-10-10-10-10--|
|---------------------------------------|
|-------8-10-10-10-10-10----------------|
|-8-10----------------------------------|

|---------------------8-8-8-8---------|
|----------------------------10-10-10-|
|-----8-10-10-10-10-10----------------|
|-8-10--------------------------------|  

CHORUS / BRIDGE
|---------------------------------------------------------------------|
|--------------------7-7-7--------------------------------------------|
|--10-10-10-10-10-10-------8-8-8-8-10-10-10------------8-8-8----------|
|--------------------------------------------11-11-11-------8-8-8-----|

|---------------------------------------------------------------------|
|-------------------7-7-7---------------------------------------------|
|-----8-10-10-10-10-------8-8-8-8-10-10-10------------8-8-8-----------|
|-8-10-------------------------------------11-11-11---------8-8-8-----|

|-------------------7-7-7---------------------------------------------|
|----------------------------------------10-10-10----------8-8-8------|
|-----8-10-10-10-10-------8-8-8---------------------------------------|
|-8-10--------------------------11-11-11--------8-8-8-----------------|

|--------------------7-7-7--------------------------------------------|
|------------------------------------------10-10-10----------8-8-8----|
|-----8-10-10-10-10--------8-8-8--------------------------------------|
|-8-10----------------------------11-11-11--------8-8-8---------------|


LITTLE GIRL




INTRO
G-------------------------------------|
D---------------------12--------------|
A-0-12-12-12-10-10-10-----------------|
E------------------------10-10-10-8-8-|


CHORUS? x-mute
G-----------------|--------------------|-----------------|
D-----------------|--------------------|-----------------|
A-x-x-x-x-x-x-x-x-|-x-12-12-12-x-x-x-x-|-x-x-x-x-x-x-x-x-|
E-----------------|--------------------|-----------------|

G----------|-------------------------------------------------|
D----------|-------------------10-10-------------------------|
A-10-10-10-|-12-12-12-12-12-12-------10-10-10-10-10-10-10-10-|
E----------|-------------------------------------------------|

G--------------------------------------------|
D-12-12-12-----------------------------------|
A--------------------------------------------|
E----------10-10-10-10-10-12-12-12-8-8-8-8-8-|

VERSE 
             \/(Tremolo-slide that ***)
G-------------12\0-|---------------------------------|
D------------------|----------------12---11---10---9-|
A-12-12-12-12------|-12-12-12-12---------------------|
E------------------|-------------10----9----8----7---|

BRIDGE
G------------------------------------------------------------|
D------------------------------------------------------------|
A-x-x-12-x-x-12-x-x-12-x-x-12-x-x-12-x-x-12-x-x-12-x-x-12-12-|
E------------------------------------------------------------|

G----------------------------------------------------------------|
D----------12-10----------10-12----------------------------------|
A-x-12-x-x-------x-12-x-x-------x-12-x-x-10-10-10-10-------------|
E----------------------------------------------------10-10-10-10-|

OUTRO PART WITH LYRICS / SYNTH
G-------------------------------------------------------------|
D-------------------------------------------------------12-10-|
A-x-x-12-x-x-12-x-x-12-x-x-12-12-x-12-x-x-12-x-x-12-x-x-------|
E-------------------------------------------------------------|

G-------------------------------------------------------------|---|
D------------------------10-12--------------------------------|---|
A-x-12-x-x-12-x-x-12-x-x-------x-12-0-10-10-10-10-------------|-0-|
E-------------------------------------------------10-10-10-10-|---|


COLD WAR

h-hammer
p-pull off
Introduction.
G---------------
D---------------
A--10\-----------
E----------------

Verse

G--------------10-10-------------------------8------------10-10-----------------10-12--
D--------------------8-8-7-7-10-10--------------------------------8-8-7-7-10-10--------
A---10-10-10-10-------------------------8-8-----10-10-10-10----------------------------
E--------------------------------------------------------------------------------------

Chorus

G---------------------------------------------------------------------------------
D---------------------------------------------------------------------------------
A-15-17-17-17-17-17-13-15-15-15-15-15-8-10-10-10-10-10-10-10-10-10-10-10-10-10-10-
E---------------------------------------------------------------------------------

G------------------------------------------------------------------------------------
D-----------------17-19--------------------------------------------------------------
A---15-17--18-20--------13-15---8-10-10-10-10-10-10-10-10-10-10-10-10-10-10-10-10-10-
E------------------------------------------------------------------------------------

G------------------------------------------------------------------------------------
D-----------------17-19--18-20-------------------------------------------------------
A----15-17--18-20---------------8-10-10-10-10-10-10-10-10-10-10-10-10-10-10-10-10-10--
E------------------------------------------------------------------------------------

Outro
same as intro, just slower...get the timing right
G----------10--10-10------------------8-
D-------------------8--8-8--7--7-7------
A--10--10-10----------------------------
E---------------------------------------


G----------10-10-10---------------12-
D------------------8--8-8--7-77-7----
A--10-10-10--------------------------
E------------------------------------


YOU’RE A WOMAN IM A MACHINE

PLAY IN D-STANDARD
D-G-C-F TUNING


INTRO X8
|-7-7-10-7-7-7-9-7-|
|------------------|
|------------------|
|------------------|

VERSE X4
|-9-9-9-9-7-7-7-7-7-7-7-7-7-7-7-7-9-9-9-7-------------------------|
|-----------------------------------------9-9-9-9-9-9-9-9-9-9-9-9-|
|-----------------------------------------------------------------|
|-----------------------------------------------------------------|

|-----------------------------------------------------------------|
|-7-7-7-7-------------------------7-7-7-7-------------------------|
|---------9-9-9-9-9-9-9-9-9-9-9-9---------9-9-9-9-9-9-9-9-9-9-9-9-|
|-----------------------------------------------------------------|

CHORUS                                                             X2
|-10-10-9-9-7-7-7-7-7-7-7-7-7-7-7-7-9-9-9-7-------------------------|
|-------------------------------------------9-9-9-9-9-9-9-9-9-9-9-9-|
|-------------------------------------------------------------------|
|-------------------------------------------------------------------|

|-------------------------------------------------------------------|
|-7-7-7-7-------------------------7-7-7-7---------------------------|
|---------9-9-9-9-9-9-9-9-9-9-9-9---------9-9-9-9-9-9-9-9-9-9-9-9---|
|-------------------------------------------------------------------|
                                                                 
                                                                 X2
|-9-9-9-9-7-7-7-7-7-7-7-7-7-7-7-7-9-9-9-7-------------------------|
|-----------------------------------------9-9-9-9-9-9-9-9-9-9-9-9-|
|-----------------------------------------------------------------|
|-----------------------------------------------------------------|

|-----------------------------------------------------------------|
|-7-7-7-7-------------------------7-7-7-7-------------------------|
|---------9-9-9-9-9-9-9-9-9-9-9-9---------9-9-9-9-9-9-9-9-9-9-9-9-|
|-----------------------------------------------------------------|

BRIDGE X4
|-7-7-10-7-7-7-9-7-|
|------------------|
|------------------|
|------------------|

VERSE

CHORUS                                                             

BRIDGE X4
|-7-7-10-7-7-7-9-7-|
|------------------|
|------------------|
|------------------|

|-10-7-9-7-10-7-9-7-|
|-------------------|
|-------------------|
|-------------------|

OUTRO
|-----------------7----------------------|
|-9-9-9-9-9-9-7-9---9-----------------7~-|
|---------------------9-9-9-9-9-9-7-9----|
|----------------------------------------|
                            
                                                 x4
|-------------9p7---------------------9p7---------|
|---------7h9-----9p7-------------7h9-----9p7-----|
|-----7h9-------------9p7-----7h9-------------9p7-|
|-7h9---------------------7h9---------------------|

                                                 x4
|-------------7p5---------------------7p5---------|
|---------5h7-----7p5-------------5h7-----7p5-----|
|-----5h7-------------7p5-----5h7-------------7p5-|
|-5h7---------------------5h7---------------------|

                                                                  x4
|----------------11p9--------------------------11p9----------------|
|-----------9h11------11p9----------------9h11------11p9-----------|
|------9h11----------------11p9------9h11----------------11p9------|
|-9h11--------------------------9h11--------------------------12---|












PULL OUT

Tuning: D-Standard (D, G, C, F) 

Verse 
F|-------12-12---------10-10---8-8-8--------10-10--------------------------
C|-------------------------------------------------------10-10-------------
G|-10-10-------10-10-8-------8-------10-8-8-------8-8-10-------12h13-12h13-
D|-------------------------------------------------------------------------

F|-------12-12---------10-10---8-8-8--------10-10--------------14h15-14h15-
C|-------------------------------------------------------10-10-------------
G|-10-10-------10-10-8-------8-------10-8-8-------8-8-10-------------------
D|-------------------------------------------------------------------------

Chorus
F|---------------------------------------------------
C|---------------------------------------------------
G|---------------------------------------8(x8)-------
D|-3(x12)-6(x4)-8(x8)-6(x8)-3(x12)-6(x4)-------4(x8)-

Last Note
F|----
C|----
G|-10-
D|----


SEXY RESULTS

*=Scratch.


Intro:
G[----------]
D[------7-7-]
A[-5-5-5----]
E[----------]

Verse Riff:
G[---------------------------]
D[----5h7---------5h7--------]
A[-------------------5--3----]
E[-3h5---3h5---3h5----5--3---]

Chorus:
G[-----/17-17-17-17-17-17-17-17-17-17-17-17--]
D[-------------------------------------------]
A[-------------------------------------------]
E[-3h5---------------------------------------]

G[-----/16-16-16-16-16-16-16-16-16-16-16-16--]
D[-------------------------------------------]
A[-------------------------------------------]
E[-3h5---------------------------------------]

G[-----/17-17-17-17-17-17-17-17-17-17-17-17--]
D[-------------------------------------------]
A[-------------------------------------------]
E[-3h5---------------------------------------]

G[-----/16-16-16-16-16-16-16-16-16-16-16-16--]
D[-------------------------------------------]
A[-------------------------------------------]
E[-3h5---------------------------------------]

Riff:
G[--------------------------------------]
D[--------------------------------------]
A[--------------------------------------]
E[-3h5-*-3h5-3-*-3h5--------------------]



            
            
Suggest correction
Creating personal tab
Creating personal tab
You can edit any tab online and save it as your Personal.

You can edit, replace or remove any tab part or add personal notes – all changes will be seen only by you.

Personal tabs can be accessed anytime from any device, even offline.
Learn more »
Give kudos to tab author, rate the tab!
1 2 3 4 5
comments
print report bad tab
3 comments total.
0 reply
Notoriousdoc 195 Feb 07, 2008 10:08 AM

Having it all in the same proper tuning would be helpful (D standard). Spelling mistakes and stuff too. Not terrible.

0 reply
someguy142 31 Mar 12, 2008 01:11 PM

i hope you dont mind that i totally stole your stealing of someone elses tab lol

0 reply
Zao_89 894 Aug 20, 2008 12:34 PM

I think You're a Woman and Little Girl are in C# standard (though Little Girl is a bit higher).

guest
You may want to rate the tab now too:
select rating
Wanna post a correction for this tab? Suggest correction