Oops, an error
Loading. Please wait.

Youre A Woman Im A Machine bass

version 1
version 1

Whole song

Interactive

13,607 views 3 this week
4 commentsread comments
1 2 3 4 5
x 8
add to favorites
×
Save as Personal and add changes to this tab that will be seen only by you. Learn more ›
×
You can save this tab as Personal to edit and correct it or add notes. All changes will be seen only by you. Learn more »
launch autoscroll
font size
0
reset
guitar tuner
edit
Autoscroll
slow
fast
+/-
esc
set tempo
stop
Author
Difficulty
If you have questions, my AIM name is Cameron5.
 
YOU'RE A WOMAN, I'M A MACHINE 
by
DEATH FROM ABOVE 1979

Tabbed by: Cameron L. a.k.a. Ska Bassist

|Intro|


G|--4-4-7-4-4-4-6-4-4-4-7-4-4-4-6---|
D|----------------------------------|            Play this 3 times
A|----------------------------------|
E|----------------------------------|


G|--4-4-7-4-4-4-6-4-4-4-7-4-7-6-4---|
D|----------------------------------|            Then this on the 4th time
A|----------------------------------|
E|----------------------------------|

|Verse|


G|-----------------------------------|
D|--7--7-7-7-7-7-7-7-7-7-7-7-5-5-5---|
A|-----------------------------------|
E|-----------------------------------|


G|-----------------------------------|
D|-----------------------------------|
A|--7--7-7-7-7-7-7-7-7-7-7-7-5-5-5---|     Do this whole thing a total of 6 times
E|-----------------------------------|


G|-----------------------------------------------------------|
D|-----------------------------------------------------------|
A|---------------------------5-5-5---------------------------|
E|--7--7-7-7-7-7-7-7-7-7-7-7-------7--7-7-7-7-7-7-7-7-7-7-7--|

|Post-Verse/Chorus thing|

Do this twice

G|---------------------------------------------------------------------------|
D|--7-7------------------------------------0---------------------------------|
A|-------7-9--9-9-9-9-9-9-9-9-9-9-9-10-10----7--7-7-7-7-7-7-7-7-7-7-7-5-5-5--|
E|---------------------------------------------------------------------------|


G|--------------------------------------------------------------|
D|--------------------------------------------------------------|
A|--------------------------------------------------------------|
E|--7--5-5-6-7-5-5-6-7-5-5-6-7-5-5-7--5-5-6-7-5-5-6-7-5-5-6-7-5-|


Play the entire thing over again, and then....

|Bridge/Outro|


G|--4-4-7-4-4-4-6-4-4-4-7-4-4-4-6---|
D|----------------------------------|    X2
A|----------------------------------|
E|----------------------------------|


G|--4-7-4-6-4-7-4-6-|
D|------------------|    X4
A|------------------|
E|------------------|



G|--7-6-4---|
D|----------|
A|----------|
E|----------|

This is where it slows down/goes into cut time

G|-------------------7---------------------|
D|--7--7-7-7-7-7-5-5--------------------7--|
A|---------------------7--7-7-7-7-7-5-5----|
E|-----------------------------------------|


G|--------------------------------|
D|------------7-9-12-9-11-9-------|   X8
A|--------7-9---------------12-9--|
E|--7-10--------------------------|

(Then move down two frets)

G|-------------------------------|
D|------------5-7-10-7-9-7-------|   X4
A|-------5-7---------------10-7--|  
E|--5-8--------------------------|

(Then back up two)

G|--------------------------------|
D|------------7-9-12-9-11-9-------|   X4
A|--------7-9---------------12-9--|
E|--7-10--------------------------|

End on:

G|------|
D|------|
A|------|
E|--7\--|

© Cameron LeViere 2007, all rights reserved
Suggest correction
Creating personal tab
Creating personal tab
You can edit any tab online and save it as your Personal.

You can edit, replace or remove any tab part or add personal notes – all changes will be seen only by you.

Personal tabs can be accessed anytime from any device, even offline.
Learn more »
comments
print report bad tab
4 comments total. Showing first comments.
0 reply
tumples 30 Jun 04, 2007 06:28 AM

excellent stuff

0 reply
Notoriousdoc 195 Jul 16, 2007 09:00 AM

Great tab.

-1 reply
someguy142 31 Mar 15, 2008 10:53 AM

i dont think its right personally maybe its just cuz i bont have the right distortion but nice try

guest
You may want to rate the tab now too:
select rating
Wanna post a correction for this tab? Suggest correction