Oops, an error
Loading. Please wait.

Beware tab

version 2
version 2

Whole song

415 views 9 this week
no commentswrite comment
1 2 3 4 5
3 more votes to show rating
add to favorites
×
Save as Personal and add changes to this tab that will be seen only by you. Learn more ›
×
You can save this tab as Personal to edit and correct it or add notes. All changes will be seen only by you. Learn more »
launch autoscroll
font size
0
reset
how to read this tab
guitar tuner
edit
Autoscroll
slow
fast
+/-
esc
set tempo
stop
Tune to Drop D.


[Intro]

(Just open D strings, with the occasional hammer-on & pull-off)

e|----------------------------------------------------------------------------|
B|----------------------------------------------------------------------------|
G|----------------------------------------------------------------------------|
D|---0---0h2p0----------------------------------------------------------------|
A|----------------------------------------------------------------------------|
D|-0---0----------------------------------------------------------------------|


[Verse/Chorus]

(It's a D chord with a little melody on top)

e|-----7-------------7----------------------------------------------|
B|-10------7--7---10-----7------------------------------------------|
G|-7----------------------------------------------------------------|
D|-0----------------------------------------------------------------|
A|-0----------------------------------------------------------------|
D|-0----------------------------------------------------------------|

(You can keep playing the low D string while letting it ring, or even alternate between
the two open D strings, like in the intro)

(The only other part is the glitchy techno-style vocal, which seems to be a B note
 You can play along with it like this)

e|---------------------------------------------------------------------------|
B|---------------------------------------------------------------------------|
G|---------------------------------------------------------------------------|
D|--7h9-9---9-9-----7h9-9---9-9----------------------------------------------|
A|---------------------------------------------------------------------------|
D|---------------------------------------------------------------------------|

(Or use power chords if you prefer)



*********************
|h        Hammer-on
|p        Pull-off
*********************

            
            
Suggest correction
Creating personal tab
Creating personal tab
You can edit any tab online and save it as your Personal.

You can edit, replace or remove any tab part or add personal notes – all changes will be seen only by you.

Personal tabs can be accessed anytime from any device, even offline.
Learn more »
Give kudos to tab author, rate the tab!
1 2 3 4 5
comments
print report bad tab
guest
You may want to rate the tab now too:
select rating
Wanna post a correction for this tab? Suggest correction