Oops, an error
Loading. Please wait.

War Is Shit tab

69 views 1 this week
no commentswrite comment
1 2 3 4 5
3 more votes to show rating
add to favorites
×
Save as Personal and add changes to this tab that will be seen only by you. Learn more ›
×
You can save this tab as Personal to edit and correct it or add notes. All changes will be seen only by you. Learn more »
launch autoscroll
font size
0
reset
how to read this tab
guitar tuner
edit
Autoscroll
slow
fast
+/-
esc
set tempo
stop
 link to our site -> http://deathhopeofficial.webs.com/
so heres a tab to war is shit from death hope
GUITAR DROP D TUNING IS NEEDED
()= let ring
 x= ghost note
both solos are tapped!!

                         __INTRO__
e ------------------------------------------------------------------|
b ------------------------------------------------------------------|
g ------------------------------------------------------------------|
d --00000-00000----00000-00000-3-------00000-00000----00000-00000-3-|
A --00000-00000----00000-00000-3-------00000-00000----00000-00000-3-|
D --00000-00000----00000-00000-3-------00000-00000----00000-00000-3-|
                    _VERSE 1_
e --------------------------------------------------|
b --------------------------------------------------|
g --------------------------------------------------|
d --------------------------------------------------|
a --------------------------------------------------|
D -0000000000000000-33332222555533336666555533335555|

e ---------------------------------------------------|
b ---------------------------------------------------|
g ---------------------------------------------------|
d ---------------------------------------------------|
a ------------------33332222555533336666555533335555-|
D -0000000000000000----------------------------------|

e ------------------------------------|
b ------------------------------------|
g ------------------------------------|
d --00000-00000----00000-00000-3------|
A --00000-00000----00000-00000-3------|
D --00000-00000----00000-00000-3------|

e ---------------------------------------------------|
b ---------------------------------------------------|
g ---------------------------------------------------|
d --0-0--x--0000--x--0-0--x--0000--x--0-0--x--0000---|
a --0-0--x--0000--x--0-0--x--0000--x--0-0--x--0000---|
D --0-0--x--0000--x--0-0--x--0000--x--0-0--x--0000---|

e -------------------------|
b -------------------------|
g -------------------------|
d -00-0--66--5-555-3333----|
a -00-0--66--5-555-3333----|
D -00-0--66--5-555-3333----|
                _CHORUS 1_
e -------------------------------------------|
b -------------------------------------------|
g -------------------------------------------|
d ---1--3/4---4--3-1---4--6/7---7--6-4-------|
a -1--------2--------4--------5--------------|
D -------------------------------------------|

e -------------------------------------------|
b -------------------------------------------|
g -------------------------------------------|
d ---1--3/4---4--3-1---4--6/7------7--6-4----|
a -1--------2--------4--------5--------------|
D -------------------------------------------|

                    _VERSE 2_
e --------------------------------------------------|
b --------------------------------------------------|
g --------------------------------------------------|
d --------------------------------------------------|
a --------------------------------------------------|
D -0000000000000000-33332222555533336666555533335555|

e ---------------------------------------------------|
b ---------------------------------------------------|
g ---------------------------------------------------|
d ---------------------------------------------------|
a ------------------33332222555533336666555533335555-|
D -0000000000000000----------------------------------|

e ---------------------------------------------------|
b ---------------------------------------------------|
g ---------------------------------------------------|
d --0-0--x--0000--x--0-0--x--0000--x--0-0--x--0000---|
a --0-0--x--0000--x--0-0--x--0000--x--0-0--x--0000---|
D --0-0--x--0000--x--0-0--x--0000--x--0-0--x--0000---|

e -------------------------|
b -------------------------|
g -------------------------|
d -00-0--66--5-555-3333----|
a -00-0--66--5-555-3333----|
D -00-0--66--5-555-3333----|

e ----------------------------------------|
b ----------------------------------------|
g ----------------------------------------|
d -00--00--00-00--00-0--66--5-555-3333----|
a -00--00--00-00--00-0--66--5-555-3333----|
D -00--00--00-00--00-0--66--5-555-3333----|
              _CHORUS 2_
e -------------------------------------------|
b -------------------------------------------|
g -------------------------------------------|
d ---1--3/4---4--3-1---4--6/7---7--6-4-------|
a -1--------2--------4--------5--------------|
D -------------------------------------------|

e -------------------------------------------|
b -------------------------------------------|
g -------------------------------------------|
d ---1--3/4---4--3-1---4--6/7------7--6-4----|
a -1--------2--------4--------5--------------|
D -------------------------------------------|
                    _BRIDGE_
e ---------------------------------------------------------------|
b ---------------------------------------------------------------|
g ---------------------------------------------------------------|
d -000000000000000000000000000-3-00000000000000000000000000000-3-|
a -000000000000000000000000000-3-00000000000000000000000000000-3-|
D -000000000000000000000000000-3-00000000000000000000000000000-3-|

e -----------------------------------------------------|
b -----------------------------------------------------|
g -----------------------------------------------------|
d -000000000000000000000-0-000000000000000000000000000-|
a -000000000000000000000-0-000000000000000000000000000-|
D -000000000000000000000-0-000000000000000000000000000-|

e ------------------------------------------------------------------|
b ------------------------------------------------------------------|
g ------------------------------------------------------------------|
d --00000-00000----00000-00000-3-------00000-00000----00000-00000-3-|
A --00000-00000----00000-00000-3-------00000-00000----00000-00000-3-|
D --00000-00000----00000-00000-3-------00000-00000----00000-00000-3-|

e --------------------------------------------------|
b --------------------------------------------------|
g --------------------------------------------------|
d --------------------------------------------------|
a --------------------------------------------------|
D -0000000000000000-33332222555533336666555533335555|

e ---------------------------------------------------|
b ---------------------------------------------------|
g ---------------------------------------------------|
d ---------------------------------------------------|
a ------------------33332222555533336666555533335555-|
D -0000000000000000----------------------------------|

e -----------------------------------------------------------|
b -----------------------------------------------------------|
g -----------------------------------------------------------|
d -00000-0-0--1--00000-0-0--1--00000-0-0--1--00000-0-0--1----|
a -00000-0-0--1--00000-0-0--1--00000-0-0--1--00000-0-0--1----|
D -00000-0-0--1--00000-0-0--1--00000-0-0--1--00000-0-0--1----|

                       _GUITAR 2 SOLO_
e -12--5-7-8--12--5-7-8--13--5-7-8--13--5-7-8--14--5-7-8--14-5-7-8--|
b ------------------------------------------------------------------|
g ------------------------------------------------------------------|
d ------------------------------------------------------------------| x2
a ------------------------------------------------------------------|
D ------------------------------------------------------------------|

e -12-5-7-8-12-5-7-8-12-5-7-8-12-5-7-8-13-5-7-8-13-5-7-8-13-5-7-8-13-5-7-8-|
b -------------------------------------------------------------------------|
g -------------------------------------------------------------------------|
d -------------------------------------------------------------------------|
a -------------------------------------------------------------------------|
D -------------------------------------------------------------------------|

e -14-5-7-8-14-5-7-8-14-5-7-8-14-5-7-8-15-5-7-8-15-5-7-8-15-5-7-8-15-5-7-8-|
b -------------------------------------------------------------------------|
g -------------------------------------------------------------------------|
d -------------------------------------------------------------------------|
a -------------------------------------------------------------------------|
D -------------------------------------------------------------------------|

                _GUITAR 1 (GUITAR 2 SOLO) RHYTM_
e ------------------------------------------------------------|
b ------------------------------------------------------------|
g ------------------------------------------------------------|
d -00000-0-0-3/1--00000-0-0-3/1--00000-0-0-3/1--00000-0-0-3/1-|
a -00000-0-0-3/1--00000-0-0-3/1--00000-0-0-3/1--00000-0-0-3/1-|
D -00000-0-0-3/1--00000-0-0-3/1--00000-0-0-3/1--00000-0-0-3/1-|

e ------------------------------------------------------------|
b ------------------------------------------------------------|
g ------------------------------------------------------------|
d -00000-0-0-3/1--00000-0-0-3/1--00000-0-0-3/1--00000-0-0-3/1-|
a -00000-0-0-3/1--00000-0-0-3/1--00000-0-0-3/1--00000-0-0-3/1-|
D -00000-0-0-3/1--00000-0-0-3/1--00000-0-0-3/1--00000-0-0-3/1-|

                    _GUITAR 1 SOLO_
e --12-5-8-12-5-8-12-5-8-12-5-8-12-5-8-12-5-8-12-5-8-12-|
b ------------------------------------------------------|
g ------------------------------------------------------|
d ------------------------------------------------------|
a ------------------------------------------------------|
D ------------------------------------------------------|

e --13-5-8-13-5-8-13-5-8-13-5-8-13-5-8-13-5-8-13-5-8-13-|
b ------------------------------------------------------|
g ------------------------------------------------------|
d ------------------------------------------------------|
a ------------------------------------------------------|
D ------------------------------------------------------|

e --13-6-9-13-6-9-13-6-9-13-6-9-13-6-9-13-6-9-13-6-9-13-|
b ------------------------------------------------------|
g ------------------------------------------------------|
d ------------------------------------------------------|
a ------------------------------------------------------|
D ------------------------------------------------------|

e --14-6-9-14-6-9-14-6-9-14-6-9-14-6-9-14-6-9-14-6-9-14-|
b ------------------------------------------------------|
g ------------------------------------------------------|
d ------------------------------------------------------|
a ------------------------------------------------------|
D ------------------------------------------------------|

e --14-7-10-14-7-10-14-7-10-14-7-10-14-7-10-14-7-10-14-7-10-14-|
b -------------------------------------------------------------|
g -------------------------------------------------------------|
d -------------------------------------------------------------|
a -------------------------------------------------------------|
D -------------------------------------------------------------|

e --15-7-10-15-7-10-16-7-10-16-7-10-17-7-10-17-7-10-18-7-10-18-(19-|
b -----------------------------------------------------------------|
g -----------------------------------------------------------------|
d -----------------------------------------------------------------|
a -----------------------------------------------------------------|
D -----------------------------------------------------------------|

                  _GUITAR 2 (GUITAR 1 SOLO) RHYTM_
e --------------------------------------------------------------|
b --------------------------------------------------------------|
g --------------------------------------------------------------|
d -000000000000000000000000000000000000000000000000000000000000-(same thing)
a -000000000000000000000000000000000000000000000000000000000000-(through the)
D -000000000000000000000000000000000000000000000000000000000000- (solo    )
                              _ENDING_
e --------------------------------------------------------------------|
b --------------------------------------------------------------------|
g --------------------------------------------------------------------|
d --00000-00000----00000-00000-3-------00000-00000----00000-00000-3-0-|
A --00000-00000----00000-00000-3-------00000-00000----00000-00000-3-0-|
D --00000-00000----00000-00000-3-------00000-00000----00000-00000-3-0-|

            
            
Suggest correction
Creating personal tab
Creating personal tab
You can edit any tab online and save it as your Personal.

You can edit, replace or remove any tab part or add personal notes – all changes will be seen only by you.

Personal tabs can be accessed anytime from any device, even offline.
Learn more »
Give kudos to tab author, rate the tab!
1 2 3 4 5
comments
print report bad tab
guest
You may want to rate the tab now too:
select rating
Wanna post a correction for this tab? Suggest correction