Oops, an error
Loading. Please wait.

Ls Theme Bass Tab

version 1
version 1

Whole song

Interactive

3,630 views 9 this week
1 commentread comment
1 2 3 4 5
accurate
x 3
add to favorites
launch autoscroll
font size
0
reset
guitar tuner
Autoscroll
slow
fast
+/-
esc
set tempo
stop
Help us to improve Ultimate-Guitar.com Take our survey!
×
Author
Difficulty
intermediate
Death Note - L's Theme

Tabbed by: XxThreeCheersxX
Email: phantomhiveghost@gmail.com


Verse (Note: The notes in parentheses are played very fast, like grace notes)

G|---------0-----(0)2-0-------0---------0----------------------|
D|-2-1-2-1---2-1--------2-1-2---2-1-2-1---1-2-1-0---------0----|
A|------------------------------------------------2-0-2-3------| x 4
E|-------------------------------------------------------------|

G|---------0-----(0)2-0-------0-----------------------------------|
D|-2-1-2-1---2-1--------2-1-2-------------------------------------|
A|------------------------------3-2-3-2-3-3-2-(3)5-3-3-2-3-3-2----| x 1
E|----------------------------------------------------------------|

G|---------------------------------------------------------------|
D|-----------------------------------0---------------0-1---------|
A|---------------------2-----2-1-2-1---2-1-2-1-0-1-2-------------| x 1
E|-5-4-5-4-5-5-4-5-5-4---5-4-------------------------------------|

G|---------0-----(0)2-0-------0-----------------------------------|
D|-2-1-2-1---2-1--------2-1-2-------------------------------------|
A|------------------------------3-2-3-2-3-3-2-(3)5-3-3-2-3-3-2----| x 1
E|----------------------------------------------------------------|

G|---------------------------------------------------------------|
D|-----------------------------------0---------------0-1---------|
A|---------------------2-----2-1-2-1---2-1-2-1-0-1-2-------------| x 1
E|-5-4-5-4-5-5-4-5-5-4---5-4-------------------------------------|

Chorus

G|-------------------------------------|
D|-22--22/4--2222--00--22-22/4--22220~-|
A|-------------------------------------|
E|-------------------------------------|

G|-------------------------------------------------------------|
D|-0---0---3---0-0---0---------0---0---3---0-0---0-------------|
A|---3---3---3-----3---3---0-3---3---3---3-----3---3---0-3-----|
E|-----------------------3---------------------------3---------|

G|-------------------------------------|
D|-22--22/4--2222--00--22-22/4--22220~-|
A|-------------------------------------|
E|-------------------------------------|

G|-------------------------------------------------------------|
D|-0---0---3---0-0---0---------0---0---3---0-0---0-------------|
A|---3---3---3-----3---3---0-3---3---3---3-----3---3---0-3-----|
E|-----------------------3---------------------------3---------|

G|-22-22\0--2222--44--22-22\0--22224~---|
D|--------------------------------------|
A|--------------------------------------|
E|--------------------------------------|

Verse 2

G|---------0-----(0)2-0-------0---------0----------------------|
D|-2-1-2-1---2-1--------2-1-2---2-1-2-1---1-2-1-0---------0----|
A|------------------------------------------------2-0-2-3------| x 1
E|-------------------------------------------------------------|

Chorus (same as before)

Happy playing!  This can be a bit tricky to learn, but don’t give up!
Suggest correction new What's this?
You can suggest a correction to this tab. Community and Mods will review your correction and vote to approve or reject it.
comments
We did not receive enough feedback on this tab! Please rate:
print report bad tab
1 2 3 4 5
1 comment total.
0 reply
aralox 43 wrote on August 25 2014, 01:26 am

The bass for this song is eerie and awesome, and also difficult to figure out. I imported the music into Audacity, slowed it down and upped the pitch to check this tab, and can confirm that it's correct.
Thanks XxThreeCheersxX!

PS: I heard the bassline played with distinct notes - this means that it probably wasn't played with a slide, although it sounds like it is.

guest
You may want to rate the tab now too:
select rating
Please do not post tabs as comments. Select "correction" instead!