Oops, an error
Loading. Please wait.

Ls Theme Tab

version 3
version 3

Whole song

Interactive

14,510 views 15 this week
1 commentread comment
1 2 3 4 5
excellent!
x 3
add to favorites
launch autoscroll
font size
0
reset
how to read this tab
guitar tuner
Autoscroll
slow
fast
+/-
esc
set tempo
stop
Help us to improve Ultimate-Guitar.com Take our survey!
×
Author
Difficulty
novice
Tabbed by:thephoenixseal
Original Composer:???????
Original artist:Yoshihisa Hirano and Hideki Taniuchi
Well I hope you'll like it

Intro:
Guitar 1:
e|------------------------------|
B|---------10------------12-----|
G|-12--9-------9--12--9-----12--|
D|------------------------------|
A|------------------------------|   x2
E|------------------------------|

Then Guitar 2 joins with the main riff:
e|------------------17---------------------17--------------------|
B|--17------15--17------19--17--15------15----19------15--17--19-|
G|------16--------------------------16------------16-------------|
D|---------------------------------------------------------------| x2
A|---------------------------------------------------------------|
E|---------------------------------------------------------------|

Guitar 1:
e|------------------------------|
B|---------10------------12-----|
G|-12--9-------9--12--9-----12--|
D|------------------------------|
A|------------------------------|   x2
E|------------------------------|

Then the drums join in...
Guitar 1:
e|------------------------------|
B|---------10------------12-----|
G|-12--9-------9--12--9-----12--|
D|------------------------------|
A|------------------------------|   x2
E|------------------------------|

Guitar 2:
e|------------------17---------------------17--------------------|
B|--17------15--17------19--17--15------15----19------15--17--19-|
G|------16--------------------------16------------16-------------|
D|---------------------------------------------------------------| x2
A|---------------------------------------------------------------|
E|---------------------------------------------------------------|

And then the bass joins in with this:
e|-----------------------------|
B|-----------------------------|
G|-----------------------------|
D|-----------------------------| x8
A|-----------5--7--------------|
E|--7--5--7--------5--7--7--7--|

Guitar 1:
e|------------------------------|
B|---------10------------12-----|
G|-12--9-------9--12--9-----12--|
D|------------------------------|
A|------------------------------|   x8
E|------------------------------|

Guitar 2:
e|------------------17---------------------17--------------------|
B|--17------15--17------19--17--15------15----19------15--17--19-|
G|------16--------------------------16------------16-------------|
D|---------------------------------------------------------------| x8
A|---------------------------------------------------------------|
E|---------------------------------------------------------------|

Then the bridge part follows(1:00):
Guitar 1:
e|--------------------------------------------------------------|
B|--------------------------------------------------------------|
G|--------------------------------------------------------------|
D|--7---7b------------------------------------------------------|
A|--5---5b----7---7-----9--9--9--7--9------9--9--9--7-----------|
E|-----------5---5-----7--7--7--5--7------7--7--7--5--7---------|

And guitar 2:
e----------17---------------------17---------|
B|------15------19-------------15------19----|
G|--16-----------------14--16----------------|
D|--- ---------------------------------------|
A|-------------------------------------------|
E|-------------------------------------------| 

And then again with the main riff(1:18):
Guitar 1:
e|------------------------------|
B|---------10------------12-----|
G|-12--9-------9--12--9-----12--|
D|------------------------------|
A|------------------------------|   x8
E|------------------------------|

Guitar 2:
e|------------------17---------------------17--------------------|
B|--17------15--17------19--17--15------15----19------15--17--19-|
G|------16--------------------------16------------16-------------|
D|---------------------------------------------------------------| x8
A|---------------------------------------------------------------|
E|---------------------------------------------------------------|

When you play it for the fift time the bass joins:
e|-----------------------------|
B|-----------------------------|
G|-----------------------------|
D|-----------------------------| x3
A|-----------5--7--------------|
E|--7--5--7--------5--7--7--7--|

And again the bridge part x2 {yey my favourite part}(1:54):

Guitar 1:
e|--------------------------------------------------------------|
B|--------------------------------------------------------------|
G|--------------------------------------------------------------|
D|--7---7b------------------------------------------------------|
A|--5---5b----7---7-----9--9--9--7--9------9--9--9--7-----------|
E|-----------5---5-----7--7--7--5--7------7--7--7--5--7---------|

And guitar 2:
e----------17---------------------17---------|
B|------15------19-------------15------19----|
G|--16-----------------14--16----------------|
D|--- ---------------------------------------|
A|-------------------------------------------|
E|-------------------------------------------| 

And the end(2:20)

Guitar 1:
e|------------------------------|
B|---------10------------12-----|
G|-12--9-------9--12--9-----12--|
D|------------------------------|
A|------------------------------|   x6-7
E|------------------------------|

Guitar 2:
e|------------------17---------------------17--------------------|
B|--17------15--17------19--17--15------15----19------15--17--19-|
G|------16--------------------------16------------16-------------|
D|---------------------------------------------------------------| x6-7
A|---------------------------------------------------------------|
E|---------------------------------------------------------------|

When you play the 'end part' for the third time the drums and the bass join in
Suggest correction
What's this?
You can suggest a correction to this tab. Community and Mods will review your correction and vote to approve or reject it.
comments
We did not receive enough feedback on this tab! Please rate:
print report bad tab
1 2 3 4 5
1 comment total.
0 reply
Fredric Chopin 53 wrote on April 2 2009, 09:10 am

...its okay.

guest
You may want to rate the tab now too:
select rating
Please do not post tabs as comments. Select "correction" instead!