Oops, an error
Loading. Please wait.

Misa No Uta ukulele

708 views 12 this week
no commentswrite comment
1 2 3 4 5
2 more votes to show rating
add to favorites
×
Save as Personal and add changes to this tab that will be seen only by you. Learn more ›
×
You can save this tab as Personal to edit and correct it or add notes. All changes will be seen only by you. Learn more »
launch autoscroll
font size
0
reset
transpose
0
reset
display chords
guitar tuner
edit
Autoscroll
slow
fast
+/-
esc
set tempo
stop
Author
Difficulty
Strumming
There is no strumming pattern for this song yet. and get +5 IQ
Rough ukulele arrangement based off this piano tab :
http://tabnabber.com/view_Tab.asp?tabID=8639&sArtist=Death+Note-+Misa's+Song+(Piano+Notes)&sName=Misa+no+Uta

Song : Misa No Uta / Misa's song
Composed and arranged by Yoshihisa Hirano
Standard tuning, no capo

Ki o tsukete   Kami-sama wa miteru   Kodaio yomichi wa  Te wo tsunaide kudasai Hitori de tooku ni demo
|---0-0-0---|-------------1-1-0---0--|-0-3-1---1-0----|--0-----0--------------|--0-3-1---1-0-0-0---0-|
|---------0-|-5---0-1----------------|-------------1--|------------0---0------|------------------6---|
|-2---------|---2-------2------------|----------------|------0-------0---2-2--|----------------------|
|-----------|---------0---------0----|-------0--------|----0-----0------------|--------0-------------|

Itsumo mitsukedashite Kureru  Shitteru koto wa   Zenbu  Oshiete kureru  Watashi ga oboetenakutemo
|---0---------------|--------|------------1-0--|--0-0--|-0-3-1---1-0---|------------1-3-3-6-5-3-5|
|-1-----0---0-0-----|-0------|------0-1-6------|-------|-------------1-|----0-1------------------|
|---------0-----2-2-|---2-2--|--0-2------------|-------|---------------|--2-------0--------------|
|-----0-------------|--------|-----------------|-------|-------0-------|--------0----------------|

 Nando demo   Oshiete kureru  Demo zenbu wakatte shimattara dou sureba ii no?
|--0-3-1---0-|-0-3-1---------|---------------0-0-|----3-2-1-0---0----|------|
|------------|---------1-0-1-|-2-1-2-----2-------|----------------1--|------|
|------------|---------------|-------3-----------|-------------------|------|
|--------0---|-------0-------|---------1---1-----|--1---------0------|--0-0-| END


Definitely not perfect, but it's better than the 'nothing' I'm used to find when looking for uke tabs ;)
This is my first tab, comments are welcome !

            
            
Suggest correction
Creating personal tab
Creating personal tab
You can edit any tab online and save it as your Personal.

You can edit, replace or remove any tab part or add personal notes – all changes will be seen only by you.

Personal tabs can be accessed anytime from any device, even offline.
Learn more »
Give kudos to tab author, rate the tab!
1 2 3 4 5
comments
print report bad tab
guest
You may want to rate the tab now too:
select rating
Wanna post a correction for this tab? Suggest correction