Oops, an error
Loading. Please wait.

Near Theme Tab

31,165 views 48 this week
3 commentsread comments
1 2 3 4 5
x 10
add to favorites
launch autoscroll
font size
0
reset
how to read this tab
guitar tuner
Autoscroll
slow
fast
+/-
esc
set tempo
stop
Help us to improve Ultimate-Guitar.com Take our survey!
×
Author
[Verse]
e|-----------------------------------------------------------------------|
B|-----------------------------------------------------------------------|
G|-------6-----6-----9--8--6-------------6--------6-----8--6-------------| x4
D|----6----6-----------------6--------6-----6-----------------6----------|
A|-7---------6----6-------------9--7-----------6-----6-----------9--7--9-|
E|-----------------------------------------------------------------------|

[Chorus]
e|-----------------------------------------------------------------------|
B|--5--4--3--0--3-/-4-\-3--3----14--12--12-\-11--11-\-9--9---------------|
G|-----------------------------------------------------------------------| x2
D|-----------------------------------------------------------------------|
A|-----------------------------------------------------------------------|
E|-----------------------------------------------------------------------|

[Verse]
e|-----------------------------------------------------------------------|
B|-----------------------------------------------------------------------|
G|-------6-----6-----9--8--6-------------6--------6-----8--6-------------| x4
D|----6----6-----------------6--------6-----6-----------------6----------|
A|-7---------6----6-------------9--7-----------6-----6-----------9--7--9-|
E|-----------------------------------------------------------------------|

[Chorus] x3
e|-----------------------------------------------------------------------|
B|--5--4--3--0--3-/-4-\-3--3----14--12--12-\-11--11-\-9--9---------------|
G|-----------------------------------------------------------------------| x2
D|-----------------------------------------------------------------------|
A|-----------------------------------------------------------------------|
E|-----------------------------------------------------------------------|


************************************

| /  Slide up
| \  Slide down

************************************
Suggest correction
comments
print report bad tab
3 comments total.
+1 reply
gary2damax 10 Nov 19, 2008 01:50 AM

In the chorus, I think it goes to a C# instead of a D on the second string. However, the rest of it sounds right, good job.

0 reply
Fredric Chopin 10 Apr 02, 2009 09:11 AM

...its okay.

0 reply
CrazyCatPeople 10 Apr 03, 2013 07:55 PM

not bad!!!!

guest
You may want to rate the tab now too:
select rating
Wanna post a correction for this tab? Suggest correction